  0
SECTION
  2
HEADER
  9
$ACADVER
  1
AC1027
  9
$ACADMAINTVER
 70
   105
  9
$DWGCODEPAGE
  3
ANSI_1252
  9
$LASTSAVEDBY
  1
tim
  9
$REQUIREDVERSIONS
160
                 0
  9
$INSBASE
 10
0.0
 20
0.0
 30
0.0
  9
$EXTMIN
 10
0.8680887081153896
 20
0.0004416194668239
 30
0.0
  9
$EXTMAX
 10
35.13170000000002
 20
35.98872694799743
 30
0.0
  9
$LIMMIN
 10
0.0
 20
0.0
  9
$LIMMAX
 10
12.0
 20
9.0
  9
$ORTHOMODE
 70
     0
  9
$REGENMODE
 70
     1
  9
$FILLMODE
 70
     1
  9
$QTEXTMODE
 70
     0
  9
$MIRRTEXT
 70
     1
  9
$LTSCALE
 40
1.0
  9
$ATTMODE
 70
     1
  9
$TEXTSIZE
 40
0.2
  9
$TRACEWID
 40
0.05
  9
$TEXTSTYLE
  7
Standard
  9
$CLAYER
  8
0
  9
$CELTYPE
  6
ByLayer
  9
$CECOLOR
 62
   256
  9
$CELTSCALE
 40
1.0
  9
$DISPSILH
 70
     0
  9
$DIMSCALE
 40
1.0
  9
$DIMASZ
 40
0.18
  9
$DIMEXO
 40
0.0625
  9
$DIMDLI
 40
0.38
  9
$DIMRND
 40
0.0
  9
$DIMDLE
 40
0.0
  9
$DIMEXE
 40
0.18
  9
$DIMTP
 40
0.0
  9
$DIMTM
 40
0.0
  9
$DIMTXT
 40
0.18
  9
$DIMCEN
 40
0.09
  9
$DIMTSZ
 40
0.0
  9
$DIMTOL
 70
     0
  9
$DIMLIM
 70
     0
  9
$DIMTIH
 70
     1
  9
$DIMTOH
 70
     1
  9
$DIMSE1
 70
     0
  9
$DIMSE2
 70
     0
  9
$DIMTAD
 70
     0
  9
$DIMZIN
 70
     0
  9
$DIMBLK
  1

  9
$DIMASO
 70
     1
  9
$DIMSHO
 70
     1
  9
$DIMPOST
  1

  9
$DIMAPOST
  1

  9
$DIMALT
 70
     0
  9
$DIMALTD
 70
     2
  9
$DIMALTF
 40
25.4
  9
$DIMLFAC
 40
1.0
  9
$DIMTOFL
 70
     0
  9
$DIMTVP
 40
0.0
  9
$DIMTIX
 70
     0
  9
$DIMSOXD
 70
     0
  9
$DIMSAH
 70
     0
  9
$DIMBLK1
  1

  9
$DIMBLK2
  1

  9
$DIMSTYLE
  2
Standard
  9
$DIMCLRD
 70
     0
  9
$DIMCLRE
 70
     0
  9
$DIMCLRT
 70
     0
  9
$DIMTFAC
 40
1.0
  9
$DIMGAP
 40
0.09
  9
$DIMJUST
 70
     0
  9
$DIMSD1
 70
     0
  9
$DIMSD2
 70
     0
  9
$DIMTOLJ
 70
     1
  9
$DIMTZIN
 70
     0
  9
$DIMALTZ
 70
     0
  9
$DIMALTTZ
 70
     0
  9
$DIMUPT
 70
     0
  9
$DIMDEC
 70
     4
  9
$DIMTDEC
 70
     4
  9
$DIMALTU
 70
     2
  9
$DIMALTTD
 70
     2
  9
$DIMTXSTY
  7
Standard
  9
$DIMAUNIT
 70
     0
  9
$DIMADEC
 70
     0
  9
$DIMALTRND
 40
0.0
  9
$DIMAZIN
 70
     0
  9
$DIMDSEP
 70
    46
  9
$DIMATFIT
 70
     3
  9
$DIMFRAC
 70
     0
  9
$DIMLDRBLK
  1

  9
$DIMLUNIT
 70
     2
  9
$DIMLWD
 70
    -2
  9
$DIMLWE
 70
    -2
  9
$DIMTMOVE
 70
     0
  9
$DIMFXL
 40
1.0
  9
$DIMFXLON
 70
     0
  9
$DIMJOGANG
 40
0.7853981633974483
  9
$DIMTFILL
 70
     0
  9
$DIMTFILLCLR
 70
     0
  9
$DIMARCSYM
 70
     0
  9
$DIMLTYPE
  6

  9
$DIMLTEX1
  6

  9
$DIMLTEX2
  6

  9
$DIMTXTDIRECTION
 70
     0
  9
$LUNITS
 70
     2
  9
$LUPREC
 70
     4
  9
$SKETCHINC
 40
0.1
  9
$FILLETRAD
 40
0.5
  9
$AUNITS
 70
     0
  9
$AUPREC
 70
     0
  9
$MENU
  1
.
  9
$ELEVATION
 40
0.0
  9
$PELEVATION
 40
0.0
  9
$THICKNESS
 40
0.0
  9
$LIMCHECK
 70
     0
  9
$CHAMFERA
 40
0.0
  9
$CHAMFERB
 40
0.0
  9
$CHAMFERC
 40
0.0
  9
$CHAMFERD
 40
0.0
  9
$SKPOLY
 70
     0
  9
$TDCREATE
 40
2457758.807737755
  9
$TDUCREATE
 40
2457758.807737755
  9
$TDUPDATE
 40
2457758.944624514
  9
$TDUUPDATE
 40
2457758.944624514
  9
$TDINDWG
 40
0.0222090741
  9
$TDUSRTIMER
 40
0.0222088542
  9
$USRTIMER
 70
     1
  9
$ANGBASE
 50
0.0
  9
$ANGDIR
 70
     0
  9
$PDMODE
 70
     0
  9
$PDSIZE
 40
0.0
  9
$PLINEWID
 40
0.0
  9
$SPLFRAME
 70
     0
  9
$SPLINETYPE
 70
     6
  9
$SPLINESEGS
 70
     8
  9
$HANDSEED
  5
7E3
  9
$SURFTAB1
 70
     6
  9
$SURFTAB2
 70
     6
  9
$SURFTYPE
 70
     6
  9
$SURFU
 70
     6
  9
$SURFV
 70
     6
  9
$UCSBASE
  2

  9
$UCSNAME
  2

  9
$UCSORG
 10
0.0
 20
0.0
 30
0.0
  9
$UCSXDIR
 10
1.0
 20
0.0
 30
0.0
  9
$UCSYDIR
 10
0.0
 20
1.0
 30
0.0
  9
$UCSORTHOREF
  2

  9
$UCSORTHOVIEW
 70
     0
  9
$UCSORGTOP
 10
0.0
 20
0.0
 30
0.0
  9
$UCSORGBOTTOM
 10
0.0
 20
0.0
 30
0.0
  9
$UCSORGLEFT
 10
0.0
 20
0.0
 30
0.0
  9
$UCSORGRIGHT
 10
0.0
 20
0.0
 30
0.0
  9
$UCSORGFRONT
 10
0.0
 20
0.0
 30
0.0
  9
$UCSORGBACK
 10
0.0
 20
0.0
 30
0.0
  9
$PUCSBASE
  2

  9
$PUCSNAME
  2

  9
$PUCSORG
 10
0.0
 20
0.0
 30
0.0
  9
$PUCSXDIR
 10
1.0
 20
0.0
 30
0.0
  9
$PUCSYDIR
 10
0.0
 20
1.0
 30
0.0
  9
$PUCSORTHOREF
  2

  9
$PUCSORTHOVIEW
 70
     0
  9
$PUCSORGTOP
 10
0.0
 20
0.0
 30
0.0
  9
$PUCSORGBOTTOM
 10
0.0
 20
0.0
 30
0.0
  9
$PUCSORGLEFT
 10
0.0
 20
0.0
 30
0.0
  9
$PUCSORGRIGHT
 10
0.0
 20
0.0
 30
0.0
  9
$PUCSORGFRONT
 10
0.0
 20
0.0
 30
0.0
  9
$PUCSORGBACK
 10
0.0
 20
0.0
 30
0.0
  9
$USERI1
 70
     0
  9
$USERI2
 70
     0
  9
$USERI3
 70
     0
  9
$USERI4
 70
     0
  9
$USERI5
 70
     0
  9
$USERR1
 40
0.0
  9
$USERR2
 40
0.0
  9
$USERR3
 40
0.0
  9
$USERR4
 40
0.0
  9
$USERR5
 40
0.0
  9
$WORLDVIEW
 70
     1
  9
$SHADEDGE
 70
     3
  9
$SHADEDIF
 70
    70
  9
$TILEMODE
 70
     1
  9
$MAXACTVP
 70
    64
  9
$PINSBASE
 10
0.0
 20
0.0
 30
0.0
  9
$PLIMCHECK
 70
     0
  9
$PEXTMIN
 10
1.000000000000000E+20
 20
1.000000000000000E+20
 30
1.000000000000000E+20
  9
$PEXTMAX
 10
-1.000000000000000E+20
 20
-1.000000000000000E+20
 30
-1.000000000000000E+20
  9
$PLIMMIN
 10
0.0
 20
0.0
  9
$PLIMMAX
 10
12.0
 20
9.0
  9
$UNITMODE
 70
     0
  9
$VISRETAIN
 70
     1
  9
$PLINEGEN
 70
     0
  9
$PSLTSCALE
 70
     1
  9
$TREEDEPTH
 70
  3020
  9
$CMLSTYLE
  2
Standard
  9
$CMLJUST
 70
     0
  9
$CMLSCALE
 40
1.0
  9
$PROXYGRAPHICS
 70
     1
  9
$MEASUREMENT
 70
     0
  9
$CELWEIGHT
370
    -1
  9
$ENDCAPS
280
     0
  9
$JOINSTYLE
280
     0
  9
$LWDISPLAY
290
     0
  9
$INSUNITS
 70
     4
  9
$HYPERLINKBASE
  1

  9
$STYLESHEET
  1

  9
$XEDIT
290
     1
  9
$CEPSNTYPE
380
     0
  9
$PSTYLEMODE
290
     1
  9
$FINGERPRINTGUID
  2
{15645C24-89C0-4AE3-8D48-A2EC81B43F74}
  9
$VERSIONGUID
  2
{521E890E-96A2-4207-9C1B-BC3205B76CD2}
  9
$EXTNAMES
290
     1
  9
$PSVPSCALE
 40
0.0
  9
$OLESTARTUP
290
     0
  9
$SORTENTS
280
   127
  9
$INDEXCTL
280
     0
  9
$HIDETEXT
280
     1
  9
$XCLIPFRAME
280
     2
  9
$HALOGAP
280
     0
  9
$OBSCOLOR
 70
   257
  9
$OBSLTYPE
280
     0
  9
$INTERSECTIONDISPLAY
280
     0
  9
$INTERSECTIONCOLOR
 70
   257
  9
$DIMASSOC
280
     2
  9
$PROJECTNAME
  1

  9
$CAMERADISPLAY
290
     0
  9
$LENSLENGTH
 40
50.0
  9
$CAMERAHEIGHT
 40
0.0
  9
$STEPSPERSEC
 40
2.0
  9
$STEPSIZE
 40
6.0
  9
$3DDWFPREC
 40
2.0
  9
$PSOLWIDTH
 40
0.25
  9
$PSOLHEIGHT
 40
4.0
  9
$LOFTANG1
 40
1.570796326794897
  9
$LOFTANG2
 40
1.570796326794897
  9
$LOFTMAG1
 40
0.0
  9
$LOFTMAG2
 40
0.0
  9
$LOFTPARAM
 70
     7
  9
$LOFTNORMALS
280
     1
  9
$LATITUDE
 40
37.795
  9
$LONGITUDE
 40
-122.394
  9
$NORTHDIRECTION
 40
0.0
  9
$TIMEZONE
 70
 -8000
  9
$LIGHTGLYPHDISPLAY
280
     1
  9
$TILEMODELIGHTSYNCH
280
     1
  9
$CMATERIAL
347
44
  9
$SOLIDHIST
280
     0
  9
$SHOWHIST
280
     1
  9
$DWFFRAME
280
     2
  9
$DGNFRAME
280
     2
  9
$REALWORLDSCALE
290
     1
  9
$INTERFERECOLOR
 62
   256
  9
$INTERFEREOBJVS
345
33
  9
$INTERFEREVPVS
346
30
  9
$CSHADOW
280
     0
  9
$SHADOWPLANELOCATION
 40
0.0
  0
ENDSEC
  0
SECTION
  2
CLASSES
  0
CLASS
  1
ACDBDICTIONARYWDFLT
  2
AcDbDictionaryWithDefault
  3
ObjectDBX Classes
 90
        0
 91
        1
280
     0
281
     0
  0
CLASS
  1
VISUALSTYLE
  2
AcDbVisualStyle
  3
ObjectDBX Classes
 90
     4095
 91
       24
280
     0
281
     0
  0
CLASS
  1
MATERIAL
  2
AcDbMaterial
  3
ObjectDBX Classes
 90
     1153
 91
        3
280
     0
281
     0
  0
CLASS
  1
SCALE
  2
AcDbScale
  3
ObjectDBX Classes
 90
     1153
 91
       33
280
     0
281
     0
  0
CLASS
  1
TABLESTYLE
  2
AcDbTableStyle
  3
ObjectDBX Classes
 90
     4095
 91
        1
280
     0
281
     0
  0
CLASS
  1
MLEADERSTYLE
  2
AcDbMLeaderStyle
  3
ACDB_MLEADERSTYLE_CLASS
 90
     4095
 91
        1
280
     0
281
     0
  0
CLASS
  1
SUN
  2
AcDbSun
  3
SCENEOE
 90
     1153
 91
        1
280
     0
281
     0
  0
CLASS
  1
DICTIONARYVAR
  2
AcDbDictionaryVar
  3
ObjectDBX Classes
 90
        0
 91
        7
280
     0
281
     0
  0
CLASS
  1
CELLSTYLEMAP
  2
AcDbCellStyleMap
  3
ObjectDBX Classes
 90
     1152
 91
        2
280
     0
281
     0
  0
CLASS
  1
ACDBSECTIONVIEWSTYLE
  2
AcDbSectionViewStyle
  3
ObjectDBX Classes
 90
     1025
 91
        1
280
     0
281
     0
  0
CLASS
  1
ACDBDETAILVIEWSTYLE
  2
AcDbDetailViewStyle
  3
ObjectDBX Classes
 90
     1025
 91
        1
280
     0
281
     0
  0
CLASS
  1
SORTENTSTABLE
  2
AcDbSortentsTable
  3
ObjectDBX Classes
 90
        0
 91
        1
280
     0
281
     0
  0
ENDSEC
  0
SECTION
  2
TABLES
  0
TABLE
  2
VPORT
  5
8
330
0
100
AcDbSymbolTable
 70
     1
  0
VPORT
  5
29
330
8
100
AcDbSymbolTableRecord
100
AcDbViewportTableRecord
  2
*Active
 70
     0
 10
0.0
 20
0.0
 11
1.0
 21
1.0
 12
28.48764632394436
 22
5.902937236196812
 13
0.0
 23
0.0
 14
0.5
 24
0.5
 15
0.5
 25
0.5
 16
0.0
 26
0.0
 36
1.0
 17
0.0
 27
0.0
 37
0.0
 40
91.30226406600405
 41
1.38125
 42
50.0
 43
0.0
 44
0.0
 50
0.0
 51
0.0
 71
     0
 72
   100
 73
     1
 74
     3
 75
     0
 76
     0
 77
     0
 78
     0
281
     0
 65
     1
110
0.0
120
0.0
130
0.0
111
1.0
121
0.0
131
0.0
112
0.0
122
1.0
132
0.0
 79
     0
146
0.0
348
2F
 60
     3
 61
     5
292
     1
282
     1
141
0.0
142
0.0
 63
   250
361
6D
1001
ACAD_NAV_VCDISPLAY
1070
     3
  0
ENDTAB
  0
TABLE
  2
LTYPE
  5
5
330
0
100
AcDbSymbolTable
 70
     1
  0
LTYPE
  5
14
330
5
100
AcDbSymbolTableRecord
100
AcDbLinetypeTableRecord
  2
ByBlock
 70
     0
  3

 72
    65
 73
     0
 40
0.0
  0
LTYPE
  5
15
330
5
100
AcDbSymbolTableRecord
100
AcDbLinetypeTableRecord
  2
ByLayer
 70
     0
  3

 72
    65
 73
     0
 40
0.0
  0
LTYPE
  5
16
330
5
100
AcDbSymbolTableRecord
100
AcDbLinetypeTableRecord
  2
Continuous
 70
     0
  3
Solid line
 72
    65
 73
     0
 40
0.0
  0
ENDTAB
  0
TABLE
  2
LAYER
  5
2
330
0
100
AcDbSymbolTable
 70
     2
  0
LAYER
  5
10
102
{ACAD_XDICTIONARY
360
7CB
102
}
330
2
100
AcDbSymbolTableRecord
100
AcDbLayerTableRecord
  2
0
 70
     0
 62
     7
  6
Continuous
370
    -3
390
F
347
46
348
0
  0
LAYER
  5
6F
102
{ACAD_XDICTIONARY
360
7CD
102
}
330
2
100
AcDbSymbolTableRecord
100
AcDbLayerTableRecord
  2
Layer 1
 70
     0
 62
     7
  6
Continuous
370
    -3
390
F
347
46
348
0
  0
ENDTAB
  0
TABLE
  2
STYLE
  5
3
330
0
100
AcDbSymbolTable
 70
     1
  0
STYLE
  5
11
330
3
100
AcDbSymbolTableRecord
100
AcDbTextStyleTableRecord
  2
Standard
 70
     0
 40
0.0
 41
1.0
 50
0.0
 71
     0
 42
0.2
  3
txt
  4

  0
ENDTAB
  0
TABLE
  2
VIEW
  5
6
330
0
100
AcDbSymbolTable
 70
     0
  0
ENDTAB
  0
TABLE
  2
UCS
  5
7
330
0
100
AcDbSymbolTable
 70
     0
  0
ENDTAB
  0
TABLE
  2
APPID
  5
9
330
0
100
AcDbSymbolTable
 70
     4
  0
APPID
  5
12
330
9
100
AcDbSymbolTableRecord
100
AcDbRegAppTableRecord
  2
ACAD
 70
     0
  0
APPID
  5
6E
330
9
100
AcDbSymbolTableRecord
100
AcDbRegAppTableRecord
  2
ODA
 70
     0
  0
APPID
  5
CB
330
9
100
AcDbSymbolTableRecord
100
AcDbRegAppTableRecord
  2
ACAD_MLEADERVER
 70
     0
  0
APPID
  5
763
330
9
100
AcDbSymbolTableRecord
100
AcDbRegAppTableRecord
  2
ACAD_NAV_VCDISPLAY
 70
     0
  0
ENDTAB
  0
TABLE
  2
DIMSTYLE
  5
A
330
0
100
AcDbSymbolTable
 70
     1
100
AcDbDimStyleTable
 71
     0
  0
DIMSTYLE
105
27
330
A
100
AcDbSymbolTableRecord
100
AcDbDimStyleTableRecord
  2
Standard
 70
     0
340
11
  0
ENDTAB
  0
TABLE
  2
BLOCK_RECORD
  5
1
330
0
100
AcDbSymbolTable
 70
     1
  0
BLOCK_RECORD
  5
1F
102
{ACAD_XDICTIONARY
360
DC
102
}
330
1
100
AcDbSymbolTableRecord
100
AcDbBlockTableRecord
  2
*Model_Space
340
22
 70
     0
280
     1
281
     0
  0
BLOCK_RECORD
  5
1B
330
1
100
AcDbSymbolTableRecord
100
AcDbBlockTableRecord
  2
*Paper_Space
340
1E
 70
     0
280
     1
281
     0
  0
BLOCK_RECORD
  5
23
330
1
100
AcDbSymbolTableRecord
100
AcDbBlockTableRecord
  2
*Paper_Space0
340
26
 70
     0
280
     1
281
     0
  0
ENDTAB
  0
ENDSEC
  0
SECTION
  2
BLOCKS
  0
BLOCK
  5
20
330
1F
100
AcDbEntity
  8
0
100
AcDbBlockBegin
  2
*Model_Space
 70
     0
 10
0.0
 20
0.0
 30
0.0
  3
*Model_Space
  1

  0
ENDBLK
  5
21
330
1F
100
AcDbEntity
  8
0
100
AcDbBlockEnd
  0
BLOCK
  5
1C
330
1B
100
AcDbEntity
 67
     1
  8
0
100
AcDbBlockBegin
  2
*Paper_Space
 70
     0
 10
0.0
 20
0.0
 30
0.0
  3
*Paper_Space
  1

  0
ENDBLK
  5
1D
330
1B
100
AcDbEntity
 67
     1
  8
0
100
AcDbBlockEnd
  0
BLOCK
  5
24
330
23
100
AcDbEntity
 67
     1
  8
0
100
AcDbBlockBegin
  2
*Paper_Space0
 70
     0
 10
0.0
 20
0.0
 30
0.0
  3
*Paper_Space0
  1

  0
ENDBLK
  5
25
330
23
100
AcDbEntity
 67
     1
  8
0
100
AcDbBlockEnd
  0
ENDSEC
  0
SECTION
  2
ENTITIES
  0
SPLINE
  5
E0
330
1F
100
AcDbEntity
  8
Layer 1
370
     9
100
AcDbSpline
210
0.0
220
0.0
230
1.0
 70
     9
 71
     3
 72
    12
 73
     8
 74
     0
 42
0.000000001
 43
0.0000000001
 40
0.0
 40
0.0
 40
0.0
 40
0.0
 40
0.00000001
 40
0.6666666666666668
 40
0.6666666666666668
 40
0.6666666666666668
 40
1.0
 40
1.0
 40
1.0
 40
1.0
 10
31.5913
 20
14.5454
 30
0.0
 10
31.5913
 20
14.5454
 30
0.0
 10
31.9165
 20
13.9762
 30
0.0
 10
32.8922
 20
12.7025
 30
0.0
 10
33.2175
 20
12.5127
 30
0.0
 10
32.6212
 20
12.8379
 30
0.0
 10
31.6998
 20
13.9762
 30
0.0
 10
31.5913
 20
14.5454
 30
0.0
  0
SPLINE
  5
E4
330
1F
100
AcDbEntity
  8
Layer 1
370
     9
100
AcDbSpline
210
0.0
220
0.0
230
1.0
 70
     9
 71
     3
 72
    20
 73
    16
 74
     0
 42
0.000000001
 43
0.0000000001
 40
0.0
 40
0.0
 40
0.0
 40
0.0
 40
0.00000001
 40
0.2000000000000001
 40
0.2000000000000001
 40
0.2000000000000001
 40
0.20000001
 40
0.4
 40
0.4
 40
0.4
 40
0.4000000100000002
 40
0.8
 40
0.8
 40
0.8
 40
1.0
 40
1.0
 40
1.0
 40
1.0
 10
31.7811
 20
12.2416
 30
0.0
 10
31.7811
 20
12.2416
 30
0.0
 10
31.3202
 20
12.6753
 30
0.0
 10
30.6698
 20
13.9221
 30
0.0
 10
31.0221
 20
14.708
 30
0.0
 10
31.0221
 20
14.708
 30
0.0
 10
30.9409
 20
14.1658
 30
0.0
 10
31.3746
 20
13.0277
 30
0.0
 10
31.8352
 20
12.5127
 30
0.0
 10
31.8352
 20
12.5127
 30
0.0
 10
32.2959
 20
11.9977
 30
0.0
 10
32.2959
 20
11.5912
 30
0.0
 10
32.2959
 20
11.5912
 30
0.0
 10
32.2959
 20
11.5912
 30
0.0
 10
32.2418
 20
11.8079
 30
0.0
 10
31.7811
 20
12.2416
 30
0.0
  0
SPLINE
  5
E8
330
1F
100
AcDbEntity
  8
Layer 1
370
     9
100
AcDbSpline
210
0.0
220
0.0
230
1.0
 70
    11
 71
     3
 72
    20
 73
    16
 74
     0
 42
0.000000001
 43
0.0000000001
 40
0.0
 40
0.0
 40
0.0
 40
0.0
 40
0.00000001
 40
0.2000000000000001
 40
0.2000000000000001
 40
0.2000000000000001
 40
0.20000001
 40
0.4
 40
0.4
 40
0.4
 40
0.4000000100000002
 40
0.8
 40
0.8
 40
0.8
 40
1.0
 40
1.0
 40
1.0
 40
1.0
 10
27.6886
 20
15.0332
 30
0.0
 10
27.6886
 20
15.0332
 30
0.0
 10
27.6886
 20
15.0332
 30
0.0
 10
27.1465
 20
16.4968
 30
0.0
 10
27.3634
 20
17.364
 30
0.0
 10
27.3634
 20
17.364
 30
0.0
 10
27.5802
 20
18.2312
 30
0.0
 10
26.9839
 20
19.6949
 30
0.0
 10
26.7672
 20
20.8332
 30
0.0
 10
26.7672
 20
20.8332
 30
0.0
 10
27.6344
 20
19.4239
 30
0.0
 10
28.5017
 20
18.7734
 30
0.0
 10
28.0681
 20
17.7435
 30
0.0
 10
27.6344
 20
16.7135
 30
0.0
 10
27.6886
 20
15.0332
 30
0.0
 10
27.6886
 20
15.0332
 30
0.0
  0
SPLINE
  5
115
330
1F
100
AcDbEntity
  8
Layer 1
370
     9
100
AcDbSpline
210
0.0
220
0.0
230
1.0
 70
     9
 71
     3
 72
   184
 73
   180
 74
     0
 42
0.000000001
 43
0.0000000001
 40
0.0
 40
0.0
 40
0.0
 40
0.0
 40
0.00000001
 40
0.0217391304347826
 40
0.0217391304347826
 40
0.0217391304347826
 40
0.0217391404347826
 40
0.0434782608695652
 40
0.0434782608695652
 40
0.0434782608695652
 40
0.0434782708695652
 40
0.0652173913043478
 40
0.0652173913043478
 40
0.0652173913043478
 40
0.0652174013043478
 40
0.0869565217391305
 40
0.0869565217391305
 40
0.0869565217391305
 40
0.0869565317391304
 40
0.108695652173913
 40
0.108695652173913
 40
0.108695652173913
 40
0.108695662173913
 40
0.1304347826086957
 40
0.1304347826086957
 40
0.1304347826086957
 40
0.1304347926086957
 40
0.1521739130434783
 40
0.1521739130434783
 40
0.1521739130434783
 40
0.1521739230434783
 40
0.1739130434782609
 40
0.1739130434782609
 40
0.1739130434782609
 40
0.1739130534782609
 40
0.1956521739130435
 40
0.1956521739130435
 40
0.1956521739130435
 40
0.1956521839130435
 40
0.2173913043478261
 40
0.2173913043478261
 40
0.2173913043478261
 40
0.2173913143478261
 40
0.2391304347826087
 40
0.2391304347826087
 40
0.2391304347826087
 40
0.2391304447826086
 40
0.2608695652173913
 40
0.2608695652173913
 40
0.2608695652173913
 40
0.2608695752173912
 40
0.2826086956521739
 40
0.2826086956521739
 40
0.2826086956521739
 40
0.2826087056521738
 40
0.3043478260869565
 40
0.3043478260869565
 40
0.3043478260869565
 40
0.3043478360869564
 40
0.3260869565217391
 40
0.3260869565217391
 40
0.3260869565217391
 40
0.3260869665217391
 40
0.3478260869565217
 40
0.3478260869565217
 40
0.3478260869565217
 40
0.3478260969565218
 40
0.3695652173913044
 40
0.3695652173913044
 40
0.3695652173913044
 40
0.3695652273913045
 40
0.3913043478260871
 40
0.3913043478260871
 40
0.3913043478260871
 40
0.391304357826087
 40
0.4130434782608698
 40
0.4130434782608698
 40
0.4130434782608698
 40
0.4130434882608697
 40
0.4347826086956523
 40
0.4347826086956523
 40
0.4347826086956523
 40
0.4347826186956523
 40
0.4565217391304348
 40
0.4565217391304348
 40
0.4565217391304348
 40
0.4565217491304349
 40
0.4782608695652174
 40
0.4782608695652174
 40
0.4782608695652174
 40
0.4782608795652175
 40
0.5
 40
0.5
 40
0.5
 40
0.5000000100000002
 40
0.5217391304347828
 40
0.5217391304347828
 40
0.5217391304347828
 40
0.5217391404347828
 40
0.5434782608695654
 40
0.5434782608695654
 40
0.5434782608695654
 40
0.5434782708695653
 40
0.5652173913043481
 40
0.5652173913043481
 40
0.5652173913043481
 40
0.565217401304348
 40
0.5869565217391304
 40
0.5869565217391304
 40
0.5869565217391304
 40
0.5869565317391306
 40
0.6086956521739132
 40
0.6086956521739132
 40
0.6086956521739132
 40
0.6086956621739131
 40
0.6304347826086959
 40
0.6304347826086959
 40
0.6304347826086959
 40
0.6304347926086959
 40
0.6521739130434784
 40
0.6521739130434784
 40
0.6521739130434784
 40
0.6521739230434784
 40
0.6739130434782608
 40
0.6739130434782608
 40
0.6739130434782608
 40
0.6739130534782609
 40
0.6956521739130432
 40
0.6956521739130432
 40
0.6956521739130432
 40
0.6956521839130437
 40
0.717391304347826
 40
0.717391304347826
 40
0.717391304347826
 40
0.7173913143478263
 40
0.7391304347826086
 40
0.7391304347826086
 40
0.7391304347826086
 40
0.7391304447826091
 40
0.7608695652173914
 40
0.7608695652173914
 40
0.7608695652173914
 40
0.7608695752173917
 40
0.7826086956521742
 40
0.7826086956521742
 40
0.7826086956521742
 40
0.7826087056521739
 40
0.8043478260869562
 40
0.8043478260869562
 40
0.8043478260869562
 40
0.8043478360869563
 40
0.826086956521739
 40
0.826086956521739
 40
0.826086956521739
 40
0.826086966521739
 40
0.8478260869565218
 40
0.8478260869565218
 40
0.8478260869565218
 40
0.8478260969565218
 40
0.8695652173913043
 40
0.8695652173913043
 40
0.8695652173913043
 40
0.8695652273913045
 40
0.8913043478260869
 40
0.8913043478260869
 40
0.8913043478260869
 40
0.8913043578260868
 40
0.9130434782608695
 40
0.9130434782608695
 40
0.9130434782608695
 40
0.9130434882608694
 40
0.9347826086956521
 40
0.9347826086956521
 40
0.9347826086956521
 40
0.934782618695652
 40
0.9782608695652173
 40
0.9782608695652173
 40
0.9782608695652173
 40
1.0
 40
1.0
 40
1.0
 40
1.0
 10
19.0275
 20
20.7889
 30
0.0
 10
19.0275
 20
20.7889
 30
0.0
 10
19.0323
 20
20.8401
 30
0.0
 10
19.0788
 20
20.9638
 30
0.0
 10
19.1213
 20
21.0569
 30
0.0
 10
19.1213
 20
21.0569
 30
0.0
 10
19.2538
 20
21.3281
 30
0.0
 10
19.4328
 20
21.6969
 30
0.0
 10
19.604
 20
21.9671
 30
0.0
 10
19.604
 20
21.9671
 30
0.0
 10
19.7357
 20
22.1677
 30
0.0
 10
19.8638
 20
22.3325
 30
0.0
 10
19.9672
 20
22.4911
 30
0.0
 10
19.9672
 20
22.4911
 30
0.0
 10
20.1738
 20
22.7506
 30
0.0
 10
20.4253
 20
23.0229
 30
0.0
 10
20.5854
 20
23.2259
 30
0.0
 10
20.5854
 20
23.2259
 30
0.0
 10
20.719
 20
23.3317
 30
0.0
 10
20.9335
 20
23.5654
 30
0.0
 10
21.1128
 20
23.7048
 30
0.0
 10
21.1128
 20
23.7048
 30
0.0
 10
21.3312
 20
23.8567
 30
0.0
 10
21.4761
 20
23.9855
 30
0.0
 10
21.728
 20
24.1326
 30
0.0
 10
21.728
 20
24.1326
 30
0.0
 10
22.1701
 20
24.4457
 30
0.0
 10
22.6162
 20
24.6567
 30
0.0
 10
23.1933
 20
24.8656
 30
0.0
 10
23.1933
 20
24.8656
 30
0.0
 10
23.2979
 20
24.8889
 30
0.0
 10
23.2816
 20
24.8362
 30
0.0
 10
23.4204
 20
24.8796
 30
0.0
 10
23.4204
 20
24.8796
 30
0.0
 10
23.5139
 20
24.9006
 30
0.0
 10
23.607
 20
24.925
 30
0.0
 10
23.7022
 20
24.9399
 30
0.0
 10
23.7022
 20
24.9399
 30
0.0
 10
23.7752
 20
24.9371
 30
0.0
 10
23.8521
 20
24.941
 30
0.0
 10
23.96
 20
24.9456
 30
0.0
 10
23.96
 20
24.9456
 30
0.0
 10
24.0486
 20
24.955
 30
0.0
 10
24.1336
 20
24.9572
 30
0.0
 10
24.175
 20
24.9688
 30
0.0
 10
24.175
 20
24.9688
 30
0.0
 10
24.2395
 20
24.9333
 30
0.0
 10
24.5041
 20
24.935
 30
0.0
 10
24.6474
 20
24.8895
 30
0.0
 10
24.6474
 20
24.8895
 30
0.0
 10
24.7471
 20
24.8631
 30
0.0
 10
24.7402
 20
24.8841
 30
0.0
 10
24.8258
 20
24.8616
 30
0.0
 10
24.8258
 20
24.8616
 30
0.0
 10
24.8588
 20
24.8398
 30
0.0
 10
24.9177
 20
24.8083
 30
0.0
 10
25.0307
 20
24.7781
 30
0.0
 10
25.0307
 20
24.7781
 30
0.0
 10
25.0744
 20
24.7415
 30
0.0
 10
25.2016
 20
24.7029
 30
0.0
 10
25.2897
 20
24.6453
 30
0.0
 10
25.2897
 20
24.6453
 30
0.0
 10
25.3198
 20
24.5986
 30
0.0
 10
25.3315
 20
24.5676
 30
0.0
 10
25.4151
 20
24.4972
 30
0.0
 10
25.4151
 20
24.4972
 30
0.0
 10
25.5494
 20
24.4066
 30
0.0
 10
25.6168
 20
24.3112
 30
0.0
 10
25.7873
 20
24.1247
 30
0.0
 10
25.7873
 20
24.1247
 30
0.0
 10
25.8486
 20
24.0114
 30
0.0
 10
26.0157
 20
23.775
 30
0.0
 10
25.9646
 20
23.7373
 30
0.0
 10
25.9646
 20
23.7373
 30
0.0
 10
25.8124
 20
23.9544
 30
0.0
 10
25.6065
 20
24.2641
 30
0.0
 10
25.358
 20
24.3939
 30
0.0
 10
25.358
 20
24.3939
 30
0.0
 10
25.2879
 20
24.4658
 30
0.0
 10
25.1837
 20
24.5281
 30
0.0
 10
25.1171
 20
24.5815
 30
0.0
 10
25.1171
 20
24.5815
 30
0.0
 10
25.0734
 20
24.5824
 30
0.0
 10
25.0086
 20
24.6154
 30
0.0
 10
24.9262
 20
24.6377
 30
0.0
 10
24.9262
 20
24.6377
 30
0.0
 10
24.7769
 20
24.669
 30
0.0
 10
24.7089
 20
24.6424
 30
0.0
 10
24.5363
 20
24.6581
 30
0.0
 10
24.5363
 20
24.6581
 30
0.0
 10
24.4228
 20
24.6807
 30
0.0
 10
24.3486
 20
24.6895
 30
0.0
 10
24.2458
 20
24.6777
 30
0.0
 10
24.2458
 20
24.6777
 30
0.0
 10
23.8405
 20
24.7349
 30
0.0
 10
23.2706
 20
24.6159
 30
0.0
 10
22.8544
 20
24.3851
 30
0.0
 10
22.8544
 20
24.3851
 30
0.0
 10
22.793
 20
24.3744
 30
0.0
 10
22.6831
 20
24.3252
 30
0.0
 10
22.5993
 20
24.2886
 30
0.0
 10
22.5993
 20
24.2886
 30
0.0
 10
22.108
 20
24.0509
 30
0.0
 10
21.601
 20
23.737
 30
0.0
 10
21.2557
 20
23.4282
 30
0.0
 10
21.2557
 20
23.4282
 30
0.0
 10
20.9718
 20
23.2252
 30
0.0
 10
20.6853
 20
22.9397
 30
0.0
 10
20.4633
 20
22.6769
 30
0.0
 10
20.4633
 20
22.6769
 30
0.0
 10
20.4042
 20
22.614
 30
0.0
 10
20.355
 20
22.5891
 30
0.0
 10
20.2914
 20
22.5039
 30
0.0
 10
20.2914
 20
22.5039
 30
0.0
 10
20.2208
 20
22.4053
 30
0.0
 10
20.2249
 20
22.3658
 30
0.0
 10
20.1547
 20
22.2677
 30
0.0
 10
20.1547
 20
22.2677
 30
0.0
 10
20.082
 20
22.1757
 30
0.0
 10
20.0402
 20
22.1436
 30
0.0
 10
19.9644
 20
22.0221
 30
0.0
 10
19.9644
 20
22.0221
 30
0.0
 10
19.901
 20
21.8801
 30
0.0
 10
19.7891
 20
21.6699
 30
0.0
 10
19.7166
 20
21.5035
 30
0.0
 10
19.7166
 20
21.5035
 30
0.0
 10
19.6304
 20
21.3922
 30
0.0
 10
19.5281
 20
21.273
 30
0.0
 10
19.4408
 20
21.1026
 30
0.0
 10
19.4408
 20
21.1026
 30
0.0
 10
19.3431
 20
20.9079
 30
0.0
 10
19.3283
 20
20.7967
 30
0.0
 10
19.2478
 20
20.5965
 30
0.0
 10
19.2478
 20
20.5965
 30
0.0
 10
19.1136
 20
20.2731
 30
0.0
 10
19.0492
 20
20.0879
 30
0.0
 10
19.008
 20
19.7147
 30
0.0
 10
19.008
 20
19.7147
 30
0.0
 10
18.9356
 20
19.3474
 30
0.0
 10
18.9355
 20
19.1602
 30
0.0
 10
18.9297
 20
18.8327
 30
0.0
 10
18.9297
 20
18.8327
 30
0.0
 10
18.9339
 20
18.7249
 30
0.0
 10
18.9604
 20
18.7614
 30
0.0
 10
18.9664
 20
18.6338
 30
0.0
 10
18.9664
 20
18.6338
 30
0.0
 10
18.9713
 20
18.4171
 30
0.0
 10
18.998
 20
18.1924
 30
0.0
 10
19.0106
 20
18.0108
 30
0.0
 10
19.0106
 20
18.0108
 30
0.0
 10
19.0493
 20
17.7618
 30
0.0
 10
19.1742
 20
17.4407
 30
0.0
 10
19.0862
 20
17.4048
 30
0.0
 10
19.0862
 20
17.4048
 30
0.0
 10
19.0507
 20
17.5185
 30
0.0
 10
18.9867
 20
17.6702
 30
0.0
 10
18.9834
 20
17.7405
 30
0.0
 10
18.9834
 20
17.7405
 30
0.0
 10
18.9622
 20
17.7639
 30
0.0
 10
18.9408
 20
17.7788
 30
0.0
 10
18.9192
 20
17.8644
 30
0.0
 10
18.9192
 20
17.8644
 30
0.0
 10
18.8992
 20
18.0517
 30
0.0
 10
18.8602
 20
18.1764
 30
0.0
 10
18.8276
 20
18.4224
 30
0.0
 10
18.8276
 20
18.4224
 30
0.0
 10
18.7886
 20
18.5686
 30
0.0
 10
18.7635
 20
18.7643
 30
0.0
 10
18.717
 20
18.7933
 30
0.0
 10
18.717
 20
18.7933
 30
0.0
 10
18.7126
 20
18.9103
 30
0.0
 10
18.7299
 20
18.9338
 30
0.0
 10
18.7239
 20
19.081
 30
0.0
 10
18.7239
 20
19.081
 30
0.0
 10
18.7107
 20
19.1367
 30
0.0
 10
18.7169
 20
19.2633
 30
0.0
 10
18.6962
 20
19.292
 30
0.0
 10
18.7211
 20
19.8042
 30
0.0
 10
18.8184
 20
20.3427
 30
0.0
 10
19.0275
 20
20.7889
 30
0.0
  0
SPLINE
  5
143
330
1F
100
AcDbEntity
  8
Layer 1
370
     9
100
AcDbSpline
210
0.0
220
0.0
230
1.0
 70
     9
 71
     3
 72
   192
 73
   188
 74
     0
 42
0.000000001
 43
0.0000000001
 40
0.0
 40
0.0
 40
0.0
 40
0.0
 40
0.00000001
 40
0.0208333333333334
 40
0.0208333333333334
 40
0.0208333333333334
 40
0.0208333433333334
 40
0.0416666666666667
 40
0.0416666666666667
 40
0.0416666666666667
 40
0.0416666766666667
 40
0.0625
 40
0.0625
 40
0.0625
 40
0.06250001
 40
0.0833333333333334
 40
0.0833333333333334
 40
0.0833333333333334
 40
0.0833333433333334
 40
0.1041666666666667
 40
0.1041666666666667
 40
0.1041666666666667
 40
0.1041666766666667
 40
0.125
 40
0.125
 40
0.125
 40
0.12500001
 40
0.1458333333333334
 40
0.1458333333333334
 40
0.1458333333333334
 40
0.1458333433333334
 40
0.1666666666666667
 40
0.1666666666666667
 40
0.1666666666666667
 40
0.1666666766666667
 40
0.1875
 40
0.1875
 40
0.1875
 40
0.18750001
 40
0.2083333333333334
 40
0.2083333333333334
 40
0.2083333333333334
 40
0.2083333433333335
 40
0.2291666666666667
 40
0.2291666666666667
 40
0.2291666666666667
 40
0.2291666766666667
 40
0.25
 40
0.25
 40
0.25
 40
0.25000001
 40
0.2708333333333333
 40
0.2708333333333333
 40
0.2708333333333333
 40
0.2708333433333334
 40
0.2916666666666667
 40
0.2916666666666667
 40
0.2916666666666667
 40
0.2916666766666667
 40
0.3125
 40
0.3125
 40
0.3125
 40
0.31250001
 40
0.3333333333333333
 40
0.3333333333333333
 40
0.3333333333333333
 40
0.3333333433333334
 40
0.3541666666666667
 40
0.3541666666666667
 40
0.3541666666666667
 40
0.3541666766666667
 40
0.375
 40
0.375
 40
0.375
 40
0.37500001
 40
0.3958333333333333
 40
0.3958333333333333
 40
0.3958333333333333
 40
0.3958333433333335
 40
0.4166666666666668
 40
0.4166666666666668
 40
0.4166666666666668
 40
0.4166666766666669
 40
0.4375
 40
0.4375
 40
0.4375
 40
0.4375000100000002
 40
0.4583333333333333
 40
0.4583333333333333
 40
0.4583333333333333
 40
0.4583333433333335
 40
0.4791666666666667
 40
0.4791666666666667
 40
0.4791666666666667
 40
0.4791666766666668
 40
0.5000000000000001
 40
0.5000000000000001
 40
0.5000000000000001
 40
0.5000000100000001
 40
0.5208333333333334
 40
0.5208333333333334
 40
0.5208333333333334
 40
0.5208333433333334
 40
0.5416666666666666
 40
0.5416666666666666
 40
0.5416666666666666
 40
0.5416666766666668
 40
0.5625000000000001
 40
0.5625000000000001
 40
0.5625000000000001
 40
0.5625000100000001
 40
0.5833333333333334
 40
0.5833333333333334
 40
0.5833333333333334
 40
0.5833333433333334
 40
0.6041666666666666
 40
0.6041666666666666
 40
0.6041666666666666
 40
0.6041666766666668
 40
0.6250000000000001
 40
0.6250000000000001
 40
0.6250000000000001
 40
0.6250000100000001
 40
0.6458333333333334
 40
0.6458333333333334
 40
0.6458333333333334
 40
0.6458333433333334
 40
0.6666666666666666
 40
0.6666666666666666
 40
0.6666666666666666
 40
0.6666666766666668
 40
0.6875000000000001
 40
0.6875000000000001
 40
0.6875000000000001
 40
0.6875000100000001
 40
0.7083333333333334
 40
0.7083333333333334
 40
0.7083333333333334
 40
0.7083333433333334
 40
0.7291666666666666
 40
0.7291666666666666
 40
0.7291666666666666
 40
0.7291666766666668
 40
0.7500000000000001
 40
0.7500000000000001
 40
0.7500000000000001
 40
0.7500000100000001
 40
0.7708333333333334
 40
0.7708333333333334
 40
0.7708333333333334
 40
0.7708333433333334
 40
0.7916666666666666
 40
0.7916666666666666
 40
0.7916666666666666
 40
0.7916666766666668
 40
0.8124999999999998
 40
0.8124999999999998
 40
0.8124999999999998
 40
0.8125000099999999
 40
0.8333333333333333
 40
0.8333333333333333
 40
0.8333333333333333
 40
0.8333333433333333
 40
0.8541666666666664
 40
0.8541666666666664
 40
0.8541666666666664
 40
0.8541666766666667
 40
0.8749999999999998
 40
0.8749999999999998
 40
0.8749999999999998
 40
0.8750000099999999
 40
0.8958333333333333
 40
0.8958333333333333
 40
0.8958333333333333
 40
0.8958333433333333
 40
0.9166666666666664
 40
0.9166666666666664
 40
0.9166666666666664
 40
0.9166666766666667
 40
0.9374999999999998
 40
0.9374999999999998
 40
0.9374999999999998
 40
0.9375000099999997
 40
0.9791666666666666
 40
0.9791666666666666
 40
0.9791666666666666
 40
0.9999999999999998
 40
0.9999999999999998
 40
0.9999999999999998
 40
0.9999999999999998
 10
27.6096
 20
21.5892
 30
0.0
 10
27.6096
 20
21.5892
 30
0.0
 10
27.6103
 20
21.5425
 30
0.0
 10
27.6334
 20
21.495
 30
0.0
 10
27.6335
 20
21.4549
 30
0.0
 10
27.6335
 20
21.4549
 30
0.0
 10
27.6547
 20
21.4458
 30
0.0
 10
27.6744
 20
21.42
 30
0.0
 10
27.6934
 20
21.3881
 30
0.0
 10
27.6934
 20
21.3881
 30
0.0
 10
27.7408
 20
21.338
 30
0.0
 10
27.7911
 20
21.3354
 30
0.0
 10
27.8361
 20
21.2733
 30
0.0
 10
27.8361
 20
21.2733
 30
0.0
 10
27.8555
 20
21.226
 30
0.0
 10
27.8631
 20
21.1933
 30
0.0
 10
27.9048
 20
21.1662
 30
0.0
 10
27.9048
 20
21.1662
 30
0.0
 10
27.9644
 20
20.9962
 30
0.0
 10
28.0943
 20
20.7884
 30
0.0
 10
28.2703
 20
20.6749
 30
0.0
 10
28.2703
 20
20.6749
 30
0.0
 10
28.2768
 20
20.6459
 30
0.0
 10
28.3118
 20
20.6089
 30
0.0
 10
28.3351
 20
20.5776
 30
0.0
 10
28.3351
 20
20.5776
 30
0.0
 10
28.5042
 20
20.4182
 30
0.0
 10
28.6728
 20
20.23
 30
0.0
 10
28.838
 20
20.1185
 30
0.0
 10
28.838
 20
20.1185
 30
0.0
 10
28.9374
 20
20.0046
 30
0.0
 10
29.0836
 20
19.9104
 30
0.0
 10
29.2015
 20
19.8203
 30
0.0
 10
29.2015
 20
19.8203
 30
0.0
 10
29.2285
 20
19.7939
 30
0.0
 10
29.2366
 20
19.7669
 30
0.0
 10
29.2737
 20
19.7406
 30
0.0
 10
29.2737
 20
19.7406
 30
0.0
 10
29.3187
 20
19.7142
 30
0.0
 10
29.3442
 20
19.7296
 30
0.0
 10
29.389
 20
19.7033
 30
0.0
 10
29.389
 20
19.7033
 30
0.0
 10
29.4305
 20
19.6747
 30
0.0
 10
29.436
 20
19.6442
 30
0.0
 10
29.4918
 20
19.6166
 30
0.0
 10
29.4918
 20
19.6166
 30
0.0
 10
29.5653
 20
19.6079
 30
0.0
 10
29.6577
 20
19.5605
 30
0.0
 10
29.7374
 20
19.5387
 30
0.0
 10
29.7374
 20
19.5387
 30
0.0
 10
29.7741
 20
19.4832
 30
0.0
 10
29.8181
 20
19.4276
 30
0.0
 10
29.883
 20
19.3732
 30
0.0
 10
29.883
 20
19.3732
 30
0.0
 10
29.9614
 20
19.3185
 30
0.0
 10
30.0152
 20
19.315
 30
0.0
 10
30.0936
 20
19.259
 30
0.0
 10
30.0936
 20
19.259
 30
0.0
 10
30.2086
 20
19.1477
 30
0.0
 10
30.2778
 20
19.1036
 30
0.0
 10
30.423
 20
19.0115
 30
0.0
 10
30.423
 20
19.0115
 30
0.0
 10
30.5212
 20
18.9196
 30
0.0
 10
30.5839
 20
18.864
 30
0.0
 10
30.6538
 20
18.7868
 30
0.0
 10
30.6538
 20
18.7868
 30
0.0
 10
30.7748
 20
18.7757
 30
0.0
 10
30.8422
 20
18.6478
 30
0.0
 10
30.8772
 20
18.4765
 30
0.0
 10
30.8772
 20
18.4765
 30
0.0
 10
30.8862
 20
18.4445
 30
0.0
 10
30.893
 20
18.4126
 30
0.0
 10
30.8937
 20
18.3819
 30
0.0
 10
30.8937
 20
18.3819
 30
0.0
 10
30.9193
 20
18.3138
 30
0.0
 10
30.927
 20
18.2212
 30
0.0
 10
30.9089
 20
18.164
 30
0.0
 10
30.9089
 20
18.164
 30
0.0
 10
30.9142
 20
17.9756
 30
0.0
 10
30.9004
 20
17.7861
 30
0.0
 10
30.8867
 20
17.6621
 30
0.0
 10
30.8867
 20
17.6621
 30
0.0
 10
30.846
 20
17.2962
 30
0.0
 10
30.8054
 20
16.3611
 30
0.0
 10
31.09
 20
15.8733
 30
0.0
 10
31.09
 20
15.8733
 30
0.0
 10
31.3746
 20
15.3854
 30
0.0
 10
31.1306
 20
14.9383
 30
0.0
 10
31.1306
 20
14.9383
 30
0.0
 10
31.1306
 20
14.9383
 30
0.0
 10
31.1306
 20
14.9383
 30
0.0
 10
30.7647
 20
15.2635
 30
0.0
 10
30.3988
 20
15.2635
 30
0.0
 10
30.3988
 20
15.2635
 30
0.0
 10
30.033
 20
15.2635
 30
0.0
 10
29.7077
 20
14.9789
 30
0.0
 10
29.8704
 20
14.4911
 30
0.0
 10
29.8704
 20
14.4911
 30
0.0
 10
30.033
 20
14.0032
 30
0.0
 10
29.5451
 20
14.0439
 30
0.0
 10
29.0573
 20
14.1252
 30
0.0
 10
29.0573
 20
14.1252
 30
0.0
 10
28.5694
 20
14.2065
 30
0.0
 10
28.6914
 20
14.4504
 30
0.0
 10
28.7727
 20
15.8326
 30
0.0
 10
28.7727
 20
15.8326
 30
0.0
 10
28.8503
 20
17.1523
 30
0.0
 10
29.5135
 20
18.2276
 30
0.0
 10
30.3944
 20
18.6957
 30
0.0
 10
30.3944
 20
18.6957
 30
0.0
 10
30.2433
 20
18.8227
 30
0.0
 10
30.0514
 20
18.917
 30
0.0
 10
29.9058
 20
19.0535
 30
0.0
 10
29.9058
 20
19.0535
 30
0.0
 10
29.8796
 20
19.0515
 30
0.0
 10
29.8361
 20
19.0847
 30
0.0
 10
29.7987
 20
19.1055
 30
0.0
 10
29.7987
 20
19.1055
 30
0.0
 10
29.7011
 20
19.185
 30
0.0
 10
29.5459
 20
19.2618
 30
0.0
 10
29.4318
 20
19.3344
 30
0.0
 10
29.4318
 20
19.3344
 30
0.0
 10
29.346
 20
19.388
 30
0.0
 10
29.282
 20
19.4519
 30
0.0
 10
29.2059
 20
19.4838
 30
0.0
 10
29.2059
 20
19.4838
 30
0.0
 10
29.0964
 20
19.5753
 30
0.0
 10
28.9758
 20
19.6742
 30
0.0
 10
28.8686
 20
19.7149
 30
0.0
 10
28.8686
 20
19.7149
 30
0.0
 10
28.823
 20
19.7747
 30
0.0
 10
28.6977
 20
19.8323
 30
0.0
 10
28.6261
 20
19.8997
 30
0.0
 10
28.6261
 20
19.8997
 30
0.0
 10
28.5499
 20
19.9871
 30
0.0
 10
28.4742
 20
20.0258
 30
0.0
 10
28.3909
 20
20.1207
 30
0.0
 10
28.3909
 20
20.1207
 30
0.0
 10
28.2006
 20
20.2602
 30
0.0
 10
28.0681
 20
20.4255
 30
0.0
 10
27.8778
 20
20.6114
 30
0.0
 10
27.8778
 20
20.6114
 30
0.0
 10
27.8524
 20
20.6499
 30
0.0
 10
27.8964
 20
20.6683
 30
0.0
 10
27.8516
 20
20.7124
 30
0.0
 10
27.8516
 20
20.7124
 30
0.0
 10
27.8516
 20
20.7124
 30
0.0
 10
27.7783
 20
20.8119
 30
0.0
 10
27.7783
 20
20.8119
 30
0.0
 10
27.7783
 20
20.8119
 30
0.0
 10
27.7713
 20
20.8445
 30
0.0
 10
27.7618
 20
20.878
 30
0.0
 10
27.7375
 20
20.917
 30
0.0
 10
27.7375
 20
20.917
 30
0.0
 10
27.716
 20
20.9484
 30
0.0
 10
27.6949
 20
20.9776
 30
0.0
 10
27.6749
 20
20.9858
 30
0.0
 10
27.6749
 20
20.9858
 30
0.0
 10
27.6927
 20
21.0294
 30
0.0
 10
27.618
 20
21.1146
 30
0.0
 10
27.608
 20
21.181
 30
0.0
 10
27.608
 20
21.181
 30
0.0
 10
27.5939
 20
21.2229
 30
0.0
 10
27.577
 20
21.2083
 30
0.0
 10
27.5623
 20
21.2427
 30
0.0
 10
27.5623
 20
21.2427
 30
0.0
 10
27.5693
 20
21.2642
 30
0.0
 10
27.5634
 20
21.2922
 30
0.0
 10
27.5344
 20
21.3327
 30
0.0
 10
27.5344
 20
21.3327
 30
0.0
 10
27.5368
 20
21.3594
 30
0.0
 10
27.5039
 20
21.405
 30
0.0
 10
27.4835
 20
21.444
 30
0.0
 10
27.4835
 20
21.444
 30
0.0
 10
27.4951
 20
21.4719
 30
0.0
 10
27.5143
 20
21.4924
 30
0.0
 10
27.5037
 20
21.5383
 30
0.0
 10
27.5037
 20
21.5383
 30
0.0
 10
27.477
 20
21.6016
 30
0.0
 10
27.4834
 20
21.6555
 30
0.0
 10
27.4392
 20
21.7548
 30
0.0
 10
27.4392
 20
21.7548
 30
0.0
 10
27.4451
 20
21.814
 30
0.0
 10
27.3803
 20
21.9237
 30
0.0
 10
27.438
 20
21.9438
 30
0.0
 10
27.5153
 20
21.848
 30
0.0
 10
27.5353
 20
21.6885
 30
0.0
 10
27.6096
 20
21.5892
 30
0.0
  0
SPLINE
  5
14F
330
1F
100
AcDbEntity
  8
Layer 1
370
     9
100
AcDbSpline
210
0.0
220
0.0
230
1.0
 70
     9
 71
     3
 72
    53
 73
    49
 74
     0
 42
0.000000001
 43
0.0000000001
 40
0.0
 40
0.0
 40
0.0
 40
0.0
 40
0.00000001
 40
0.0714285714285715
 40
0.0714285714285715
 40
0.0714285714285715
 40
0.0714285814285715
 40
0.1428571428571429
 40
0.1428571428571429
 40
0.1428571428571429
 40
0.1428571528571429
 40
0.2142857142857144
 40
0.2142857142857144
 40
0.2142857142857144
 40
0.2142857242857143
 40
0.2857142857142857
 40
0.2857142857142857
 40
0.2857142857142857
 40
0.2857142957142856
 40
0.3571428571428572
 40
0.3571428571428572
 40
0.3571428571428572
 40
0.3571428671428572
 40
0.4285714285714287
 40
0.4285714285714287
 40
0.4285714285714287
 40
0.4285714385714286
 40
0.5000000000000001
 40
0.5000000000000001
 40
0.5000000000000001
 40
0.5000000100000003
 40
0.5714285714285717
 40
0.5714285714285717
 40
0.5714285714285717
 40
0.5714285814285716
 40
0.6428571428571429
 40
0.6428571428571429
 40
0.6428571428571429
 40
0.6428571528571431
 40
0.7142857142857144
 40
0.7142857142857144
 40
0.7142857142857144
 40
0.7142857242857143
 40
0.8571428571428572
 40
0.8571428571428572
 40
0.8571428571428572
 40
0.8571428671428572
 40
0.9285714285714286
 40
0.9285714285714286
 40
0.9285714285714286
 40
0.9285714285714286
 10
28.6635
 20
21.2379
 30
0.0
 10
28.6635
 20
21.2379
 30
0.0
 10
28.4738
 20
21.4084
 30
0.0
 10
28.2696
 20
21.6259
 30
0.0
 10
28.1081
 20
21.8704
 30
0.0
 10
28.1081
 20
21.8704
 30
0.0
 10
28.0375
 20
21.9448
 30
0.0
 10
28.0046
 20
22.0893
 30
0.0
 10
27.9887
 20
22.1207
 30
0.0
 10
27.9887
 20
22.1207
 30
0.0
 10
27.9855
 20
22.1179
 30
0.0
 10
27.982
 20
22.1147
 30
0.0
 10
27.978
 20
22.1103
 30
0.0
 10
27.978
 20
22.1103
 30
0.0
 10
27.9803
 20
22.1293
 30
0.0
 10
27.9836
 20
22.1306
 30
0.0
 10
27.9887
 20
22.1207
 30
0.0
 10
27.9887
 20
22.1207
 30
0.0
 10
28.0138
 20
22.1421
 30
0.0
 10
28.0206
 20
22.1242
 30
0.0
 10
28.107
 20
22.2329
 30
0.0
 10
28.107
 20
22.2329
 30
0.0
 10
28.148
 20
22.4178
 30
0.0
 10
28.1065
 20
22.378
 30
0.0
 10
28.1122
 20
22.436
 30
0.0
 10
28.1122
 20
22.436
 30
0.0
 10
28.1018
 20
22.5077
 30
0.0
 10
28.0973
 20
22.5827
 30
0.0
 10
28.0929
 20
22.6574
 30
0.0
 10
28.0929
 20
22.6574
 30
0.0
 10
28.0938
 20
22.7578
 30
0.0
 10
28.0911
 20
22.8929
 30
0.0
 10
28.1072
 20
22.9611
 30
0.0
 10
28.1072
 20
22.9611
 30
0.0
 10
28.0982
 20
23.1322
 30
0.0
 10
28.0967
 20
23.3173
 30
0.0
 10
28.1064
 20
23.5021
 30
0.0
 10
28.1064
 20
23.5021
 30
0.0
 10
28.2194
 20
23.4287
 30
0.0
 10
28.419
 20
23.2989
 30
0.0
 10
28.7727
 20
23.069
 30
0.0
 10
28.7727
 20
23.069
 30
0.0
 10
29.4626
 20
22.6206
 30
0.0
 10
29.567
 20
21.0311
 30
0.0
 10
29.5829
 20
20.5597
 30
0.0
 10
29.5829
 20
20.5597
 30
0.0
 10
29.2594
 20
20.708
 30
0.0
 10
28.9137
 20
20.968
 30
0.0
 10
28.6635
 20
21.2379
 30
0.0
  0
SPLINE
  5
179
330
1F
100
AcDbEntity
  8
Layer 1
370
     9
100
AcDbSpline
210
0.0
220
0.0
230
1.0
 70
     9
 71
     3
 72
   172
 73
   168
 74
     0
 42
0.000000001
 43
0.0000000001
 40
0.0
 40
0.0
 40
0.0
 40
0.0
 40
0.00000001
 40
0.0232558139534883
 40
0.0232558139534883
 40
0.0232558139534883
 40
0.0232558239534883
 40
0.0465116279069767
 40
0.0465116279069767
 40
0.0465116279069767
 40
0.0465116379069767
 40
0.0697674418604651
 40
0.0697674418604651
 40
0.0697674418604651
 40
0.0697674518604651
 40
0.0930232558139535
 40
0.0930232558139535
 40
0.0930232558139535
 40
0.0930232658139535
 40
0.1162790697674418
 40
0.1162790697674418
 40
0.1162790697674418
 40
0.1162790797674418
 40
0.1395348837209302
 40
0.1395348837209302
 40
0.1395348837209302
 40
0.1395348937209302
 40
0.1627906976744186
 40
0.1627906976744186
 40
0.1627906976744186
 40
0.1627907076744186
 40
0.186046511627907
 40
0.186046511627907
 40
0.186046511627907
 40
0.186046521627907
 40
0.2093023255813953
 40
0.2093023255813953
 40
0.2093023255813953
 40
0.2093023355813953
 40
0.2325581395348837
 40
0.2325581395348837
 40
0.2325581395348837
 40
0.2325581495348837
 40
0.2558139534883721
 40
0.2558139534883721
 40
0.2558139534883721
 40
0.255813963488372
 40
0.2790697674418604
 40
0.2790697674418604
 40
0.2790697674418604
 40
0.2790697774418604
 40
0.3023255813953487
 40
0.3023255813953487
 40
0.3023255813953487
 40
0.3023255913953488
 40
0.3255813953488372
 40
0.3255813953488372
 40
0.3255813953488372
 40
0.3255814053488372
 40
0.3488372093023255
 40
0.3488372093023255
 40
0.3488372093023255
 40
0.3488372193023255
 40
0.3720930232558139
 40
0.3720930232558139
 40
0.3720930232558139
 40
0.3720930332558139
 40
0.3953488372093024
 40
0.3953488372093024
 40
0.3953488372093024
 40
0.3953488472093023
 40
0.4186046511627907
 40
0.4186046511627907
 40
0.4186046511627907
 40
0.4186046611627906
 40
0.441860465116279
 40
0.441860465116279
 40
0.441860465116279
 40
0.4418604751162789
 40
0.4651162790697674
 40
0.4651162790697674
 40
0.4651162790697674
 40
0.4651162890697675
 40
0.4883720930232558
 40
0.4883720930232558
 40
0.4883720930232558
 40
0.4883721030232558
 40
0.5116279069767442
 40
0.5116279069767442
 40
0.5116279069767442
 40
0.5116279169767442
 40
0.5348837209302327
 40
0.5348837209302327
 40
0.5348837209302327
 40
0.5348837309302327
 40
0.5581395348837211
 40
0.5581395348837211
 40
0.5581395348837211
 40
0.558139544883721
 40
0.5813953488372094
 40
0.5813953488372094
 40
0.5813953488372094
 40
0.5813953588372093
 40
0.6046511627906977
 40
0.6046511627906977
 40
0.6046511627906977
 40
0.6046511727906978
 40
0.6279069767441861
 40
0.6279069767441861
 40
0.6279069767441861
 40
0.6279069867441863
 40
0.6511627906976744
 40
0.6511627906976744
 40
0.6511627906976744
 40
0.6511628006976746
 40
0.6744186046511628
 40
0.6744186046511628
 40
0.6744186046511628
 40
0.674418614651163
 40
0.6976744186046511
 40
0.6976744186046511
 40
0.6976744186046511
 40
0.6976744286046513
 40
0.7209302325581395
 40
0.7209302325581395
 40
0.7209302325581395
 40
0.7209302425581395
 40
0.7441860465116279
 40
0.7441860465116279
 40
0.7441860465116279
 40
0.7441860565116279
 40
0.7674418604651163
 40
0.7674418604651163
 40
0.7674418604651163
 40
0.7674418704651163
 40
0.7906976744186047
 40
0.7906976744186047
 40
0.7906976744186047
 40
0.7906976844186048
 40
0.813953488372093
 40
0.813953488372093
 40
0.813953488372093
 40
0.8139534983720931
 40
0.8372093023255812
 40
0.8372093023255812
 40
0.8372093023255812
 40
0.8372093123255814
 40
0.8604651162790696
 40
0.8604651162790696
 40
0.8604651162790696
 40
0.8604651262790696
 40
0.8837209302325579
 40
0.8837209302325579
 40
0.8837209302325579
 40
0.8837209402325578
 40
0.9069767441860463
 40
0.9069767441860463
 40
0.9069767441860463
 40
0.9069767541860462
 40
0.9302325581395347
 40
0.9302325581395347
 40
0.9302325581395347
 40
0.9302325681395346
 40
0.9767441860465115
 40
0.9767441860465115
 40
0.9767441860465115
 40
1.0
 40
1.0
 40
1.0
 40
1.0
 10
29.9766
 20
25.0098
 30
0.0
 10
29.9766
 20
25.0098
 30
0.0
 10
30.1052
 20
24.9689
 30
0.0
 10
30.2291
 20
24.9254
 30
0.0
 10
30.3383
 20
24.894
 30
0.0
 10
30.3383
 20
24.894
 30
0.0
 10
30.3536
 20
24.9554
 30
0.0
 10
30.0465
 20
25.0565
 30
0.0
 10
29.9171
 20
25.1174
 30
0.0
 10
29.9171
 20
25.1174
 30
0.0
 10
29.767
 20
25.1579
 30
0.0
 10
29.663
 20
25.1877
 30
0.0
 10
29.5693
 20
25.2085
 30
0.0
 10
29.5693
 20
25.2085
 30
0.0
 10
29.5693
 20
25.2085
 30
0.0
 10
29.2606
 20
25.305
 30
0.0
 10
29.2606
 20
25.305
 30
0.0
 10
29.2606
 20
25.305
 30
0.0
 10
29.2606
 20
25.305
 30
0.0
 10
28.9353
 20
25.3456
 30
0.0
 10
28.9353
 20
25.3456
 30
0.0
 10
28.9353
 20
25.3456
 30
0.0
 10
28.9353
 20
25.3456
 30
0.0
 10
28.7111
 20
25.2029
 30
0.0
 10
28.7111
 20
25.2029
 30
0.0
 10
28.7111
 20
25.2029
 30
0.0
 10
28.6447
 20
25.1753
 30
0.0
 10
28.601
 20
25.1571
 30
0.0
 10
28.5694
 20
25.1485
 30
0.0
 10
28.5694
 20
25.1485
 30
0.0
 10
28.4783
 20
25.0972
 30
0.0
 10
28.5032
 20
25.0868
 30
0.0
 10
28.4098
 20
25.0115
 30
0.0
 10
28.4098
 20
25.0115
 30
0.0
 10
28.2585
 20
24.9123
 30
0.0
 10
28.1249
 20
24.6336
 30
0.0
 10
28.0632
 20
24.5817
 30
0.0
 10
28.0632
 20
24.5817
 30
0.0
 10
28.0582
 20
24.5325
 30
0.0
 10
28.0219
 20
24.4421
 30
0.0
 10
27.9912
 20
24.3457
 30
0.0
 10
27.9912
 20
24.3457
 30
0.0
 10
27.9616
 20
24.2284
 30
0.0
 10
27.9273
 20
24.1465
 30
0.0
 10
27.9006
 20
24.0695
 30
0.0
 10
27.9006
 20
24.0695
 30
0.0
 10
27.9006
 20
24.0695
 30
0.0
 10
27.8623
 20
23.7495
 30
0.0
 10
27.8623
 20
23.7495
 30
0.0
 10
27.8623
 20
23.7495
 30
0.0
 10
27.8553
 20
23.5912
 30
0.0
 10
27.8122
 20
23.6269
 30
0.0
 10
27.797
 20
23.5121
 30
0.0
 10
27.797
 20
23.5121
 30
0.0
 10
27.789
 20
23.1774
 30
0.0
 10
27.773
 20
22.8769
 30
0.0
 10
27.7908
 20
22.5723
 30
0.0
 10
27.7908
 20
22.5723
 30
0.0
 10
27.7938
 20
22.5221
 30
0.0
 10
27.7993
 20
22.4705
 30
0.0
 10
27.8061
 20
22.4194
 30
0.0
 10
27.8061
 20
22.4194
 30
0.0
 10
27.8061
 20
22.4194
 30
0.0
 10
27.7719
 20
22.3311
 30
0.0
 10
27.7719
 20
22.3311
 30
0.0
 10
27.7719
 20
22.3311
 30
0.0
 10
27.7656
 20
22.3246
 30
0.0
 10
27.7589
 20
22.3172
 30
0.0
 10
27.7514
 20
22.3085
 30
0.0
 10
27.7514
 20
22.3085
 30
0.0
 10
27.6009
 20
21.943
 30
0.0
 10
27.8042
 20
21.8757
 30
0.0
 10
27.8607
 20
21.7272
 30
0.0
 10
27.8607
 20
21.7272
 30
0.0
 10
28.0389
 20
21.4362
 30
0.0
 10
28.2014
 20
21.2923
 30
0.0
 10
28.4008
 20
21.0685
 30
0.0
 10
28.4008
 20
21.0685
 30
0.0
 10
28.5802
 20
20.8864
 30
0.0
 10
28.8723
 20
20.6816
 30
0.0
 10
29.0203
 20
20.5573
 30
0.0
 10
29.0203
 20
20.5573
 30
0.0
 10
29.2773
 20
20.3958
 30
0.0
 10
29.6822
 20
20.2566
 30
0.0
 10
29.9493
 20
20.0618
 30
0.0
 10
29.9493
 20
20.0618
 30
0.0
 10
30.1246
 20
19.9684
 30
0.0
 10
30.2897
 20
19.8211
 30
0.0
 10
30.4678
 20
19.6461
 30
0.0
 10
30.4678
 20
19.6461
 30
0.0
 10
30.7101
 20
19.4183
 30
0.0
 10
30.9725
 20
19.0721
 30
0.0
 10
31.0808
 20
18.7793
 30
0.0
 10
31.0808
 20
18.7793
 30
0.0
 10
31.1228
 20
18.683
 30
0.0
 10
31.1668
 20
18.556
 30
0.0
 10
31.1922
 20
18.5103
 30
0.0
 10
31.1922
 20
18.5103
 30
0.0
 10
31.3009
 20
18.0314
 30
0.0
 10
31.2701
 20
17.4428
 30
0.0
 10
31.2732
 20
16.8887
 30
0.0
 10
31.2732
 20
16.8887
 30
0.0
 10
31.294
 20
16.8584
 30
0.0
 10
31.2878
 20
16.7208
 30
0.0
 10
31.3009
 20
16.66
 30
0.0
 10
31.3009
 20
16.66
 30
0.0
 10
31.3085
 20
16.4987
 30
0.0
 10
31.2814
 20
16.4737
 30
0.0
 10
31.2805
 20
16.3462
 30
0.0
 10
31.2805
 20
16.3462
 30
0.0
 10
31.3276
 20
16.3116
 30
0.0
 10
31.3325
 20
16.0937
 30
0.0
 10
31.3536
 20
15.9271
 30
0.0
 10
31.3536
 20
15.9271
 30
0.0
 10
31.3498
 20
15.6516
 30
0.0
 10
31.3734
 20
15.5077
 30
0.0
 10
31.3639
 20
15.297
 30
0.0
 10
31.3639
 20
15.297
 30
0.0
 10
31.3763
 20
15.1985
 30
0.0
 10
31.396
 20
15.1785
 30
0.0
 10
31.4146
 20
15.1492
 30
0.0
 10
31.4146
 20
15.1492
 30
0.0
 10
31.3994
 20
15.0694
 30
0.0
 10
31.4659
 20
14.892
 30
0.0
 10
31.4994
 20
14.7615
 30
0.0
 10
31.4994
 20
14.7615
 30
0.0
 10
31.5807
 20
14.7999
 30
0.0
 10
31.4706
 20
15.1573
 30
0.0
 10
31.4753
 20
15.4423
 30
0.0
 10
31.4753
 20
15.4423
 30
0.0
 10
31.4902
 20
15.6448
 30
0.0
 10
31.497
 20
15.899
 30
0.0
 10
31.5154
 20
16.1448
 30
0.0
 10
31.5154
 20
16.1448
 30
0.0
 10
31.5245
 20
16.2903
 30
0.0
 10
31.4909
 20
16.2517
 30
0.0
 10
31.4954
 20
16.3742
 30
0.0
 10
31.4954
 20
16.3742
 30
0.0
 10
31.5214
 20
16.7469
 30
0.0
 10
31.5216
 20
16.9587
 30
0.0
 10
31.5469
 20
17.3897
 30
0.0
 10
31.5469
 20
17.3897
 30
0.0
 10
31.5227
 20
17.82099999999999
 30
0.0
 10
31.5567
 20
18.0425
 30
0.0
 10
31.4892
 20
18.4695
 30
0.0
 10
31.4892
 20
18.4695
 30
0.0
 10
31.4257
 20
18.7249
 30
0.0
 10
31.3517
 20
18.8376
 30
0.0
 10
31.2416
 20
19.0709
 30
0.0
 10
31.2416
 20
19.0709
 30
0.0
 10
31.1414
 20
19.2752
 30
0.0
 10
31.059
 20
19.4399
 30
0.0
 10
30.9726
 20
19.5884
 30
0.0
 10
30.9726
 20
19.5884
 30
0.0
 10
30.8913
 20
19.6709
 30
0.0
 10
30.7949
 20
19.7635
 30
0.0
 10
30.6987
 20
19.846
 30
0.0
 10
30.6987
 20
19.846
 30
0.0
 10
31.1022
 20
20.0889
 30
0.0
 10
31.6085
 20
20.6637
 30
0.0
 10
31.7404
 20
21.1583
 30
0.0
 10
31.7404
 20
21.1583
 30
0.0
 10
31.90300000000001
 20
21.7681
 30
0.0
 10
31.4152
 20
21.9714
 30
0.0
 10
30.846
 20
22.7438
 30
0.0
 10
30.3044
 20
23.4788
 30
0.0
 10
30.3874
 20
24.3971
 30
0.0
 10
29.9766
 20
25.0098
 30
0.0
  0
SPLINE
  5
183
330
1F
100
AcDbEntity
  8
Layer 1
370
     9
100
AcDbSpline
210
0.0
220
0.0
230
1.0
 70
     9
 71
     3
 72
    45
 73
    41
 74
     0
 42
0.000000001
 43
0.0000000001
 40
0.0
 40
0.0
 40
0.0
 40
0.0
 40
0.00000001
 40
0.0833333333333333
 40
0.0833333333333333
 40
0.0833333333333333
 40
0.0833333433333333
 40
0.1666666666666666
 40
0.1666666666666666
 40
0.1666666666666666
 40
0.1666666766666666
 40
0.25
 40
0.25
 40
0.25
 40
0.2500000100000001
 40
0.3333333333333333
 40
0.3333333333333333
 40
0.3333333333333333
 40
0.3333333433333333
 40
0.4166666666666666
 40
0.4166666666666666
 40
0.4166666666666666
 40
0.4166666766666669
 40
0.5
 40
0.5
 40
0.5
 40
0.5000000100000001
 40
0.5833333333333333
 40
0.5833333333333333
 40
0.5833333333333333
 40
0.5833333433333335
 40
0.6666666666666666
 40
0.6666666666666666
 40
0.6666666666666666
 40
0.6666666766666668
 40
0.8333333333333332
 40
0.8333333333333332
 40
0.8333333333333332
 40
0.8333333433333333
 40
0.9166666666666666
 40
0.9166666666666666
 40
0.9166666666666666
 40
0.9166666666666666
 10
22.8179
 20
16.7301
 30
0.0
 10
22.8179
 20
16.7301
 30
0.0
 10
22.7978
 20
16.6997
 30
0.0
 10
22.8016
 20
16.7394
 30
0.0
 10
22.7569
 20
16.6511
 30
0.0
 10
22.7569
 20
16.6511
 30
0.0
 10
22.6704
 20
16.5816
 30
0.0
 10
22.5766
 20
16.5179
 30
0.0
 10
22.4751
 20
16.4612
 30
0.0
 10
22.4751
 20
16.4612
 30
0.0
 10
22.3374
 20
16.4431
 30
0.0
 10
22.2511
 20
16.459
 30
0.0
 10
22.1247
 20
16.455
 30
0.0
 10
22.1247
 20
16.455
 30
0.0
 10
21.5517
 20
16.3697
 30
0.0
 10
20.8586
 20
16.5217
 30
0.0
 10
20.7564
 20
17.0559
 30
0.0
 10
20.7564
 20
17.0559
 30
0.0
 10
20.4536
 20
17.7804
 30
0.0
 10
20.1949
 20
18.8409
 30
0.0
 10
20.4951
 20
19.6553
 30
0.0
 10
20.4951
 20
19.6553
 30
0.0
 10
20.5579
 20
19.7862
 30
0.0
 10
20.6354
 20
19.9639
 30
0.0
 10
20.7172
 20
20.031
 30
0.0
 10
20.7172
 20
20.031
 30
0.0
 10
21.0424
 20
20.7509
 30
0.0
 10
21.8969
 20
21.3765
 30
0.0
 10
22.5106
 20
21.8184
 30
0.0
 10
22.5106
 20
21.8184
 30
0.0
 10
22.5273
 20
21.8394
 30
0.0
 10
22.5438
 20
21.8586
 30
0.0
 10
22.5603
 20
21.8768
 30
0.0
 10
22.5603
 20
21.8768
 30
0.0
 10
23.4641
 20
21.1965
 30
0.0
 10
24.2774
 20
18.1274
 30
0.0
 10
22.9046
 20
16.7824
 30
0.0
 10
22.9046
 20
16.7824
 30
0.0
 10
22.8736
 20
16.7686
 30
0.0
 10
22.8433
 20
16.7517
 30
0.0
 10
22.8179
 20
16.7301
 30
0.0
  0
SPLINE
  5
19F
330
1F
100
AcDbEntity
  8
Layer 1
370
     9
100
AcDbSpline
210
0.0
220
0.0
230
1.0
 70
     9
 71
     3
 72
   115
 73
   111
 74
     0
 42
0.000000001
 43
0.0000000001
 40
0.0
 40
0.0
 40
0.0
 40
0.0
 40
0.00000001
 40
0.0222222222222222
 40
0.0222222222222222
 40
0.0222222222222222
 40
0.0222222322222222
 40
0.0444444444444445
 40
0.0444444444444445
 40
0.0444444444444445
 40
0.0444444544444445
 40
0.0666666666666667
 40
0.0666666666666667
 40
0.0666666666666667
 40
0.0666666766666667
 40
0.0888888888888889
 40
0.0888888888888889
 40
0.0888888888888889
 40
0.0888888988888889
 40
0.1111111111111111
 40
0.1111111111111111
 40
0.1111111111111111
 40
0.1111111211111111
 40
0.1333333333333334
 40
0.1333333333333334
 40
0.1333333333333334
 40
0.1333333433333334
 40
0.1555555555555556
 40
0.1555555555555556
 40
0.1555555555555556
 40
0.1555555655555556
 40
0.1777777777777778
 40
0.1777777777777778
 40
0.1777777777777778
 40
0.1777777877777778
 40
0.2
 40
0.2
 40
0.2
 40
0.20000001
 40
0.2222222222222222
 40
0.2222222222222222
 40
0.2222222222222222
 40
0.2222222322222222
 40
0.2444444444444445
 40
0.2444444444444445
 40
0.2444444444444445
 40
0.2444444544444445
 40
0.2666666666666666
 40
0.2666666666666666
 40
0.2666666666666666
 40
0.2666666766666667
 40
0.288888888888889
 40
0.288888888888889
 40
0.288888888888889
 40
0.2888888988888889
 40
0.3111111111111111
 40
0.3111111111111111
 40
0.3111111111111111
 40
0.3111111211111111
 40
0.3333333333333335
 40
0.3333333333333335
 40
0.3333333333333335
 40
0.3333333433333334
 40
0.3555555555555556
 40
0.3555555555555556
 40
0.3555555555555556
 40
0.3555555655555556
 40
0.3777777777777779
 40
0.3777777777777779
 40
0.3777777777777779
 40
0.3777777877777778
 40
0.4000000000000002
 40
0.4000000000000002
 40
0.4000000000000002
 40
0.4000000100000002
 40
0.4222222222222223
 40
0.4222222222222223
 40
0.4222222222222223
 40
0.4222222322222222
 40
0.4444444444444446
 40
0.4444444444444446
 40
0.4444444444444446
 40
0.4444444544444445
 40
0.4666666666666668
 40
0.4666666666666668
 40
0.4666666666666668
 40
0.4834606920592189
 40
0.4834606920592189
 40
0.4834606920592189
 40
0.4834607020592187
 40
0.505682914281441
 40
0.505682914281441
 40
0.505682914281441
 40
0.5056829242814409
 40
0.5279051365036633
 40
0.5279051365036633
 40
0.5279051365036633
 40
0.5279051465036633
 40
0.5501273587258853
 40
0.5501273587258853
 40
0.5501273587258853
 40
0.5501273687258854
 40
0.5723495809481076
 40
0.5723495809481076
 40
0.5723495809481076
 40
0.5723495909481078
 40
0.6167940253925522
 40
0.6167940253925522
 40
0.6167940253925522
 40
0.6390162476147743
 40
0.6390162476147743
 40
0.6390162476147743
 40
0.6390162476147743
 10
26.3654
 20
20.3257
 30
0.0
 10
26.3654
 20
20.3257
 30
0.0
 10
26.2599
 20
20.3686
 30
0.0
 10
26.2014
 20
20.7138
 30
0.0
 10
26.0987
 20
20.9623
 30
0.0
 10
26.0987
 20
20.9623
 30
0.0
 10
26.011
 20
21.3922
 30
0.0
 10
25.912
 20
21.6021
 30
0.0
 10
25.8563
 20
21.9308
 30
0.0
 10
25.8563
 20
21.9308
 30
0.0
 10
25.8042
 20
22.0775
 30
0.0
 10
25.7604
 20
22.0988
 30
0.0
 10
25.7159
 20
22.1353
 30
0.0
 10
25.7159
 20
22.1353
 30
0.0
 10
25.7041
 20
22.2602
 30
0.0
 10
25.5647
 20
22.515
 30
0.0
 10
25.4855
 20
22.7093
 30
0.0
 10
25.4855
 20
22.7093
 30
0.0
 10
25.4451
 20
22.689
 30
0.0
 10
25.4303
 20
22.6417
 30
0.0
 10
25.4318
 20
22.5765
 30
0.0
 10
25.4318
 20
22.5765
 30
0.0
 10
25.4318
 20
22.5765
 30
0.0
 10
25.3464
 20
22.6809
 30
0.0
 10
25.3464
 20
22.6809
 30
0.0
 10
25.3464
 20
22.6809
 30
0.0
 10
25.3597
 20
22.8143
 30
0.0
 10
25.1367
 20
23.1597
 30
0.0
 10
24.9693
 20
23.2773
 30
0.0
 10
24.9693
 20
23.2773
 30
0.0
 10
24.5573
 20
23.4728
 30
0.0
 10
24.3157
 20
23.4092
 30
0.0
 10
24.0536
 20
23.3253
 30
0.0
 10
24.0536
 20
23.3253
 30
0.0
 10
23.8722
 20
23.2608
 30
0.0
 10
23.8046
 20
23.2934
 30
0.0
 10
23.7062
 20
23.2937
 30
0.0
 10
23.7062
 20
23.2937
 30
0.0
 10
23.5412
 20
23.2084
 30
0.0
 10
23.3573
 20
23.0713
 30
0.0
 10
23.2629
 20
23.0422
 30
0.0
 10
23.2629
 20
23.0422
 30
0.0
 10
23.1031
 20
22.9172
 30
0.0
 10
23.0056
 20
22.8594
 30
0.0
 10
22.9329
 20
22.8481
 30
0.0
 10
22.9329
 20
22.8481
 30
0.0
 10
22.80800000000001
 20
22.7609
 30
0.0
 10
22.8521
 20
22.737
 30
0.0
 10
22.7042
 20
22.6375
 30
0.0
 10
22.7042
 20
22.6375
 30
0.0
 10
22.482
 20
22.5062
 30
0.0
 10
22.1646
 20
22.1794
 30
0.0
 10
22.0294
 20
22.1729
 30
0.0
 10
22.0294
 20
22.1729
 30
0.0
 10
21.9927
 20
22.1091
 30
0.0
 10
21.8867
 20
22.0133
 30
0.0
 10
21.7725
 20
21.9132
 30
0.0
 10
21.7725
 20
21.9132
 30
0.0
 10
21.632
 20
21.7958
 30
0.0
 10
21.5188
 20
21.7257
 30
0.0
 10
21.4106
 20
21.6623
 30
0.0
 10
21.4106
 20
21.6623
 30
0.0
 10
21.2891
 20
21.5519
 30
0.0
 10
21.1687
 20
21.4368
 30
0.0
 10
21.0493
 20
21.3193
 30
0.0
 10
21.0493
 20
21.3193
 30
0.0
 10
20.8735
 20
21.1363
 30
0.0
 10
20.8484
 20
21.232
 30
0.0
 10
20.7064
 20
21.1061
 30
0.0
 10
20.7064
 20
21.1061
 30
0.0
 10
19.9462
 20
20.3168
 30
0.0
 10
19.5807
 20
19.2264
 30
0.0
 10
19.8301
 20
18.2577
 30
0.0
 10
19.8301
 20
18.2577
 30
0.0
 10
19.8821
 20
17.7222
 30
0.0
 10
20.0305
 20
17.4059
 30
0.0
 10
20.1471
 20
16.9468
 30
0.0
 10
20.1471
 20
16.9468
 30
0.0
 10
20.234
 20
16.4736
 30
0.0
 10
20.8857
 20
16.004
 30
0.0
 10
21.2213
 20
15.9419
 30
0.0
 10
21.2213
 20
15.9419
 30
0.0
 10
21.7579
 20
15.8615
 30
0.0
 10
22.4287
 20
15.947
 30
0.0
 10
23.88858697246764
 20
16.33207750595969
 30
0.0
 10
24.24784579683228
 20
16.40750680968021
 30
0.0
 10
24.61849231527097
 20
16.51090296927438
 30
0.0
 10
24.8997
 20
16.6127
 30
0.0
 10
24.8997
 20
16.6127
 30
0.0
 10
25.0734
 20
16.6818
 30
0.0
 10
25.2997
 20
16.789
 30
0.0
 10
25.3662
 20
16.865
 30
0.0
 10
25.3662
 20
16.865
 30
0.0
 10
25.5742
 20
16.9697
 30
0.0
 10
25.7967
 20
17.1053
 30
0.0
 10
25.9639
 20
17.3732
 30
0.0
 10
25.9639
 20
17.3732
 30
0.0
 10
26.0973
 20
17.6162
 30
0.0
 10
26.1629
 20
17.8056
 30
0.0
 10
26.239
 20
18.0422
 30
0.0
 10
26.239
 20
18.0422
 30
0.0
 10
26.3818
 20
18.4963
 30
0.0
 10
26.4335
 20
18.9753
 30
0.0
 10
26.4475
 20
19.4364
 30
0.0
 10
26.4475
 20
19.4364
 30
0.0
 10
26.4095
 20
19.4873
 30
0.0
 10
26.4147
 20
19.7144
 30
0.0
 10
26.3783
 20
19.8122
 30
0.0
 10
26.3502
 20
20.074
 30
0.0
 10
26.3853
 20
20.1175
 30
0.0
 10
26.3654
 20
20.3257
 30
0.0
  0
SPLINE
  5
1FE
330
1F
100
AcDbEntity
  8
Layer 1
370
     9
100
AcDbSpline
210
0.0
220
0.0
230
1.0
 70
     9
 71
     3
 72
   340
 73
   336
 74
     0
 42
0.000000001
 43
0.0000000001
 40
0.0
 40
0.0
 40
0.0
 40
0.0
 40
0.00000001
 40
0.0112359550561797
 40
0.0112359550561797
 40
0.0112359550561797
 40
0.0112359650561797
 40
0.0224719101123595
 40
0.0224719101123595
 40
0.0224719101123595
 40
0.0224719201123595
 40
0.0337078651685393
 40
0.0337078651685393
 40
0.0337078651685393
 40
0.0337078751685393
 40
0.0449438202247191
 40
0.0449438202247191
 40
0.0449438202247191
 40
0.0449438302247191
 40
0.0561797752808988
 40
0.0561797752808988
 40
0.0561797752808988
 40
0.0561797852808988
 40
0.0674157303370786
 40
0.0674157303370786
 40
0.0674157303370786
 40
0.0674157403370786
 40
0.0786516853932584
 40
0.0786516853932584
 40
0.0786516853932584
 40
0.0786516953932584
 40
0.0898876404494382
 40
0.0898876404494382
 40
0.0898876404494382
 40
0.0898876504494382
 40
0.1011235955056179
 40
0.1011235955056179
 40
0.1011235955056179
 40
0.1011236055056179
 40
0.1123595505617977
 40
0.1123595505617977
 40
0.1123595505617977
 40
0.1123595605617977
 40
0.1235955056179775
 40
0.1235955056179775
 40
0.1235955056179775
 40
0.1235955156179775
 40
0.1348314606741573
 40
0.1348314606741573
 40
0.1348314606741573
 40
0.1348314706741573
 40
0.146067415730337
 40
0.146067415730337
 40
0.146067415730337
 40
0.146067425730337
 40
0.1573033707865168
 40
0.1573033707865168
 40
0.1573033707865168
 40
0.1573033807865168
 40
0.1685393258426966
 40
0.1685393258426966
 40
0.1685393258426966
 40
0.1685393358426966
 40
0.1797752808988764
 40
0.1797752808988764
 40
0.1797752808988764
 40
0.1797752908988764
 40
0.1910112359550561
 40
0.1910112359550561
 40
0.1910112359550561
 40
0.1910112459550561
 40
0.2022471910112359
 40
0.2022471910112359
 40
0.2022471910112359
 40
0.2022472010112359
 40
0.2134831460674157
 40
0.2134831460674157
 40
0.2134831460674157
 40
0.2134831560674157
 40
0.2247191011235955
 40
0.2247191011235955
 40
0.2247191011235955
 40
0.2247191111235955
 40
0.2359550561797752
 40
0.2359550561797752
 40
0.2359550561797752
 40
0.2359550661797752
 40
0.2471910112359551
 40
0.2471910112359551
 40
0.2471910112359551
 40
0.2471910212359551
 40
0.2584269662921348
 40
0.2584269662921348
 40
0.2584269662921348
 40
0.2584269762921347
 40
0.2696629213483146
 40
0.2696629213483146
 40
0.2696629213483146
 40
0.2696629313483145
 40
0.2808988764044943
 40
0.2808988764044943
 40
0.2808988764044943
 40
0.2808988864044943
 40
0.2921348314606742
 40
0.2921348314606742
 40
0.2921348314606742
 40
0.2921348414606741
 40
0.3033707865168539
 40
0.3033707865168539
 40
0.3033707865168539
 40
0.3033707965168539
 40
0.3146067415730337
 40
0.3146067415730337
 40
0.3146067415730337
 40
0.3146067515730336
 40
0.3258426966292134
 40
0.3258426966292134
 40
0.3258426966292134
 40
0.3258427066292133
 40
0.3370786516853933
 40
0.3370786516853933
 40
0.3370786516853933
 40
0.3370786616853932
 40
0.348314606741573
 40
0.348314606741573
 40
0.348314606741573
 40
0.3483146167415729
 40
0.3595505617977528
 40
0.3595505617977528
 40
0.3595505617977528
 40
0.3595505717977527
 40
0.3707865168539325
 40
0.3707865168539325
 40
0.3707865168539325
 40
0.3707865268539324
 40
0.3820224719101124
 40
0.3820224719101124
 40
0.3820224719101124
 40
0.3820224819101123
 40
0.3932584269662922
 40
0.3932584269662922
 40
0.3932584269662922
 40
0.3932584369662921
 40
0.404494382022472
 40
0.404494382022472
 40
0.404494382022472
 40
0.4044943920224719
 40
0.4157303370786516
 40
0.4157303370786516
 40
0.4157303370786516
 40
0.4157303470786516
 40
0.4269662921348316
 40
0.4269662921348316
 40
0.4269662921348316
 40
0.4269663021348317
 40
0.4382022471910113
 40
0.4382022471910113
 40
0.4382022471910113
 40
0.4382022571910113
 40
0.4494382022471911
 40
0.4494382022471911
 40
0.4494382022471911
 40
0.4494382122471912
 40
0.4606741573033708
 40
0.4606741573033708
 40
0.4606741573033708
 40
0.4606741673033707
 40
0.4719101123595506
 40
0.4719101123595506
 40
0.4719101123595506
 40
0.4719101223595508
 40
0.4831460674157304
 40
0.4831460674157304
 40
0.4831460674157304
 40
0.4831460774157303
 40
0.4943820224719103
 40
0.4943820224719103
 40
0.4943820224719103
 40
0.4943820324719104
 40
0.50561797752809
 40
0.50561797752809
 40
0.50561797752809
 40
0.5056179875280899
 40
0.5168539325842697
 40
0.5168539325842697
 40
0.5168539325842697
 40
0.5168539425842697
 40
0.5280898876404495
 40
0.5280898876404495
 40
0.5280898876404495
 40
0.5280898976404496
 40
0.5393258426966291
 40
0.5393258426966291
 40
0.5393258426966291
 40
0.5393258526966291
 40
0.5505617977528092
 40
0.5505617977528092
 40
0.5505617977528092
 40
0.5505618077528091
 40
0.5617977528089888
 40
0.5617977528089888
 40
0.5617977528089888
 40
0.5617977628089887
 40
0.5730337078651687
 40
0.5730337078651687
 40
0.5730337078651687
 40
0.5730337178651686
 40
0.5842696629213484
 40
0.5842696629213484
 40
0.5842696629213484
 40
0.5842696729213483
 40
0.5955056179775282
 40
0.5955056179775282
 40
0.5955056179775282
 40
0.5955056279775284
 40
0.6067415730337079
 40
0.6067415730337079
 40
0.6067415730337079
 40
0.606741583033708
 40
0.6179775280898876
 40
0.6179775280898876
 40
0.6179775280898876
 40
0.6179775380898878
 40
0.6292134831460674
 40
0.6292134831460674
 40
0.6292134831460674
 40
0.6292134931460676
 40
0.6404494382022473
 40
0.6404494382022473
 40
0.6404494382022473
 40
0.6404494482022473
 40
0.6516853932584271
 40
0.6516853932584271
 40
0.6516853932584271
 40
0.651685403258427
 40
0.6629213483146068
 40
0.6629213483146068
 40
0.6629213483146068
 40
0.6629213583146067
 40
0.6741573033707866
 40
0.6741573033707866
 40
0.6741573033707866
 40
0.6741573133707865
 40
0.6853932584269664
 40
0.6853932584269664
 40
0.6853932584269664
 40
0.6853932684269663
 40
0.696629213483146
 40
0.696629213483146
 40
0.696629213483146
 40
0.6966292234831462
 40
0.7078651685393258
 40
0.7078651685393258
 40
0.7078651685393258
 40
0.707865178539326
 40
0.7191011235955057
 40
0.7191011235955057
 40
0.7191011235955057
 40
0.7191011335955057
 40
0.7303370786516855
 40
0.7303370786516855
 40
0.7303370786516855
 40
0.7303370886516856
 40
0.7415730337078652
 40
0.7415730337078652
 40
0.7415730337078652
 40
0.7415730437078651
 40
0.752808988764045
 40
0.752808988764045
 40
0.752808988764045
 40
0.7528089987640449
 40
0.7640449438202248
 40
0.7640449438202248
 40
0.7640449438202248
 40
0.7640449538202247
 40
0.7752808988764047
 40
0.7752808988764047
 40
0.7752808988764047
 40
0.7752809088764046
 40
0.7865168539325842
 40
0.7865168539325842
 40
0.7865168539325842
 40
0.7865168639325844
 40
0.797752808988764
 40
0.797752808988764
 40
0.797752808988764
 40
0.797752818988764
 40
0.8089887640449436
 40
0.8089887640449436
 40
0.8089887640449436
 40
0.8089887740449436
 40
0.8202247191011235
 40
0.8202247191011235
 40
0.8202247191011235
 40
0.8202247291011234
 40
0.8314606741573031
 40
0.8314606741573031
 40
0.8314606741573031
 40
0.8314606841573031
 40
0.842696629213483
 40
0.842696629213483
 40
0.842696629213483
 40
0.8426966392134829
 40
0.8539325842696625
 40
0.8539325842696625
 40
0.8539325842696625
 40
0.8539325942696628
 40
0.8651685393258425
 40
0.8651685393258425
 40
0.8651685393258425
 40
0.8651685493258426
 40
0.8764044943820222
 40
0.8764044943820222
 40
0.8764044943820222
 40
0.8764045043820223
 40
0.8876404494382022
 40
0.8876404494382022
 40
0.8876404494382022
 40
0.8876404594382021
 40
0.8988764044943817
 40
0.8988764044943817
 40
0.8988764044943817
 40
0.8988764144943818
 40
0.9101123595505617
 40
0.9101123595505617
 40
0.9101123595505617
 40
0.9101123695505616
 40
0.9213483146067414
 40
0.9213483146067414
 40
0.9213483146067414
 40
0.9213483246067415
 40
0.9438202247191009
 40
0.9438202247191009
 40
0.9438202247191009
 40
0.9550561797752807
 40
0.9550561797752807
 40
0.9550561797752807
 40
0.9550561797752807
 10
18.5681
 20
23.6007
 30
0.0
 10
18.5681
 20
23.6007
 30
0.0
 10
18.4755
 20
23.5873
 30
0.0
 10
18.5143
 20
23.1373
 30
0.0
 10
18.4776
 20
22.8078
 30
0.0
 10
18.4776
 20
22.8078
 30
0.0
 10
18.4335
 20
22.5732
 30
0.0
 10
18.3909
 20
22.2777
 30
0.0
 10
18.3236
 20
21.9982
 30
0.0
 10
18.3236
 20
21.9982
 30
0.0
 10
18.2842
 20
21.8332
 30
0.0
 10
18.3261
 20
21.8717
 30
0.0
 10
18.2971
 20
21.7318
 30
0.0
 10
18.2971
 20
21.7318
 30
0.0
 10
18.2293
 20
21.4894
 30
0.0
 10
18.1823
 20
21.3064
 30
0.0
 10
18.1188
 20
21.1058
 30
0.0
 10
18.1188
 20
21.1058
 30
0.0
 10
17.9208
 20
21.6398
 30
0.0
 10
17.275
 20
21.8127
 30
0.0
 10
16.9018
 20
21.4022
 30
0.0
 10
16.9018
 20
21.4022
 30
0.0
 10
16.7278
 20
21.2108
 30
0.0
 10
16.6733
 20
20.93
 30
0.0
 10
16.6579
 20
20.646
 30
0.0
 10
16.6579
 20
20.646
 30
0.0
 10
16.6555
 20
20.6589
 30
0.0
 10
16.6533
 20
20.6712
 30
0.0
 10
16.6508
 20
20.6851
 30
0.0
 10
16.6508
 20
20.6851
 30
0.0
 10
16.5629
 20
20.8571
 30
0.0
 10
16.5493
 20
20.9526
 30
0.0
 10
16.5083
 20
21.1298
 30
0.0
 10
16.5083
 20
21.1298
 30
0.0
 10
16.4677
 20
21.2327
 30
0.0
 10
16.4111
 20
21.2673
 30
0.0
 10
16.3709
 20
21.3693
 30
0.0
 10
16.3709
 20
21.3693
 30
0.0
 10
16.3427
 20
21.4628
 30
0.0
 10
16.3332
 20
21.5451
 30
0.0
 10
16.3339
 20
21.6282
 30
0.0
 10
16.3339
 20
21.6282
 30
0.0
 10
16.2557
 20
21.691
 30
0.0
 10
16.1869
 20
21.791
 30
0.0
 10
16.1004
 20
21.8267
 30
0.0
 10
16.1004
 20
21.8267
 30
0.0
 10
16.0514
 20
21.88
 30
0.0
 10
16.0646
 20
21.9185
 30
0.0
 10
16.0328
 20
21.968
 30
0.0
 10
16.0328
 20
21.968
 30
0.0
 10
15.9954
 20
22.0158
 30
0.0
 10
15.9538
 20
22.0047
 30
0.0
 10
15.9168
 20
22.0517
 30
0.0
 10
15.9168
 20
22.0517
 30
0.0
 10
15.8894
 20
22.0965
 30
0.0
 10
15.8933
 20
22.1304
 30
0.0
 10
15.8758
 20
22.1712
 30
0.0
 10
15.8758
 20
22.1712
 30
0.0
 10
15.7756
 20
22.3128
 30
0.0
 10
15.6438
 20
22.4633
 30
0.0
 10
15.5549
 20
22.6167
 30
0.0
 10
15.5549
 20
22.6167
 30
0.0
 10
15.3889
 20
22.7785
 30
0.0
 10
15.2083
 20
23.0131
 30
0.0
 10
15.0036
 20
23.1927
 30
0.0
 10
15.0036
 20
23.1927
 30
0.0
 10
14.9763
 20
23.2301
 30
0.0
 10
14.9282
 20
23.2659
 30
0.0
 10
14.9209
 20
23.3022
 30
0.0
 10
14.9209
 20
23.3022
 30
0.0
 10
14.6978
 20
23.4076
 30
0.0
 10
14.5069
 20
23.6077
 30
0.0
 10
14.4013
 20
23.7921
 30
0.0
 10
14.4013
 20
23.7921
 30
0.0
 10
14.3456
 20
23.8079
 30
0.0
 10
14.329
 20
23.8438
 30
0.0
 10
14.2887
 20
23.8867
 30
0.0
 10
14.2887
 20
23.8867
 30
0.0
 10
14.2125
 20
23.9336
 30
0.0
 10
14.148
 20
23.9076
 30
0.0
 10
14.0742
 20
23.9387
 30
0.0
 10
14.0742
 20
23.9387
 30
0.0
 10
14.0421
 20
23.9654
 30
0.0
 10
14.0105
 20
23.9843
 30
0.0
 10
13.9809
 20
23.9824
 30
0.0
 10
13.9809
 20
23.9824
 30
0.0
 10
13.9694
 20
24.0285
 30
0.0
 10
13.9362
 20
24.0777
 30
0.0
 10
13.9162
 20
24.125
 30
0.0
 10
13.9162
 20
24.125
 30
0.0
 10
13.7802
 20
24.1829
 30
0.0
 10
13.7141
 20
24.351
 30
0.0
 10
13.5876
 20
24.4129
 30
0.0
 10
13.5876
 20
24.4129
 30
0.0
 10
13.5157
 20
24.356
 30
0.0
 10
13.6308
 20
24.2703
 30
0.0
 10
13.6389
 20
24.1992
 30
0.0
 10
13.6389
 20
24.1992
 30
0.0
 10
13.723
 20
24.1123
 30
0.0
 10
13.7378
 20
24.054
 30
0.0
 10
13.7924
 20
24.0003
 30
0.0
 10
13.7924
 20
24.0003
 30
0.0
 10
13.8231
 20
23.9582
 30
0.0
 10
13.7997
 20
23.9188
 30
0.0
 10
13.7913
 20
23.8783
 30
0.0
 10
13.7913
 20
23.8783
 30
0.0
 10
13.8255
 20
23.8435
 30
0.0
 10
13.8787
 20
23.8106
 30
0.0
 10
13.8814
 20
23.7774
 30
0.0
 10
13.8814
 20
23.7774
 30
0.0
 10
13.9278
 20
23.7473
 30
0.0
 10
13.9416
 20
23.7178
 30
0.0
 10
13.9373
 20
23.6885
 30
0.0
 10
13.9373
 20
23.6885
 30
0.0
 10
13.9638
 20
23.6569
 30
0.0
 10
13.9824
 20
23.684
 30
0.0
 10
14.01
 20
23.6435
 30
0.0
 10
14.01
 20
23.6435
 30
0.0
 10
14.0423
 20
23.5784
 30
0.0
 10
14.1493
 20
23.5144
 30
0.0
 10
14.1285
 20
23.4481
 30
0.0
 10
14.1285
 20
23.4481
 30
0.0
 10
14.1545
 20
23.4483
 30
0.0
 10
14.1844
 20
23.4225
 30
0.0
 10
14.2147
 20
23.3948
 30
0.0
 10
14.2147
 20
23.3948
 30
0.0
 10
14.2493
 20
23.3594
 30
0.0
 10
14.2644
 20
23.3234
 30
0.0
 10
14.2758
 20
23.2873
 30
0.0
 10
14.2758
 20
23.2873
 30
0.0
 10
14.2758
 20
23.2873
 30
0.0
 10
14.378
 20
23.2029
 30
0.0
 10
14.378
 20
23.2029
 30
0.0
 10
14.378
 20
23.2029
 30
0.0
 10
14.4335
 20
23.1645
 30
0.0
 10
14.3773
 20
23.1229
 30
0.0
 10
14.407
 20
23.084
 30
0.0
 10
14.407
 20
23.084
 30
0.0
 10
14.644
 20
22.9296
 30
0.0
 10
14.7804
 20
22.7497
 30
0.0
 10
14.9814
 20
22.6039
 30
0.0
 10
14.9814
 20
22.6039
 30
0.0
 10
15.0543
 20
22.4914
 30
0.0
 10
15.1366
 20
22.4476
 30
0.0
 10
15.1931
 20
22.3382
 30
0.0
 10
15.1931
 20
22.3382
 30
0.0
 10
15.2547
 20
22.2581
 30
0.0
 10
15.3806
 20
22.177
 30
0.0
 10
15.4011
 20
22.0964
 30
0.0
 10
15.4011
 20
22.0964
 30
0.0
 10
15.5072
 20
22.0343
 30
0.0
 10
15.6041
 20
21.8969
 30
0.0
 10
15.6612
 20
21.7565
 30
0.0
 10
15.6612
 20
21.7565
 30
0.0
 10
15.7276
 20
21.6989
 30
0.0
 10
15.7615
 20
21.6089
 30
0.0
 10
15.8167
 20
21.5179
 30
0.0
 10
15.8167
 20
21.5179
 30
0.0
 10
15.8825
 20
21.3931
 30
0.0
 10
16.0092
 20
21.2524
 30
0.0
 10
16.0386
 20
21.1178
 30
0.0
 10
16.0386
 20
21.1178
 30
0.0
 10
16.0606
 20
21.07800000000001
 30
0.0
 10
16.0783
 20
21.0222
 30
0.0
 10
16.1091
 20
21.0115
 30
0.0
 10
16.1091
 20
21.0115
 30
0.0
 10
16.1558
 20
20.7955
 30
0.0
 10
16.2676
 20
20.586
 30
0.0
 10
16.3303
 20
20.3663
 30
0.0
 10
16.3303
 20
20.3663
 30
0.0
 10
16.3641
 20
20.3628
 30
0.0
 10
16.3727
 20
20.3064
 30
0.0
 10
16.3994
 20
20.2873
 30
0.0
 10
16.3994
 20
20.2873
 30
0.0
 10
16.4303
 20
20.2264
 30
0.0
 10
16.3935
 20
20.2068
 30
0.0
 10
16.4078
 20
20.1565
 30
0.0
 10
16.4078
 20
20.1565
 30
0.0
 10
16.482
 20
20.1591
 30
0.0
 10
16.5148
 20
20.0735
 30
0.0
 10
16.5566
 20
20.0104
 30
0.0
 10
16.5566
 20
20.0104
 30
0.0
 10
16.5642
 20
19.8948
 30
0.0
 10
16.5961
 20
19.8379
 30
0.0
 10
16.5645
 20
19.7459
 30
0.0
 10
16.5645
 20
19.7459
 30
0.0
 10
16.5698
 20
19.7081
 30
0.0
 10
16.5934
 20
19.7006
 30
0.0
 10
16.616
 20
19.6913
 30
0.0
 10
16.616
 20
19.6913
 30
0.0
 10
16.4938
 20
19.361
 30
0.0
 10
16.2893
 20
18.0677
 30
0.0
 10
15.4789
 20
17.784
 30
0.0
 10
15.4789
 20
17.784
 30
0.0
 10
14.6659
 20
17.4994
 30
0.0
 10
14.0561
 20
16.727
 30
0.0
 10
12.5112
 20
16.727
 30
0.0
 10
12.5112
 20
16.727
 30
0.0
 10
11.0388
 20
16.727
 30
0.0
 10
9.4204
 20
16.5055
 30
0.0
 10
9.9405
 20
16.2382
 30
0.0
 10
9.9405
 20
16.2382
 30
0.0
 10
9.6918
 20
16.2851
 30
0.0
 10
9.439999999999999
 20
16.3421
 30
0.0
 10
9.230199999999999
 20
16.3683
 30
0.0
 10
9.230199999999999
 20
16.3683
 30
0.0
 10
9.2276
 20
16.3062
 30
0.0
 10
9.6035
 20
16.2467
 30
0.0
 10
9.760699999999999
 20
16.1853
 30
0.0
 10
9.760699999999999
 20
16.1853
 30
0.0
 10
10.0877
 20
16.1295
 30
0.0
 10
10.2294
 20
16.085
 30
0.0
 10
10.4358
 20
16.051
 30
0.0
 10
10.4358
 20
16.051
 30
0.0
 10
10.5759
 20
16.0288
 30
0.0
 10
10.6056
 20
15.9961
 30
0.0
 10
10.665
 20
15.9659
 30
0.0
 10
10.665
 20
15.9659
 30
0.0
 10
10.7965
 20
15.9498
 30
0.0
 10
10.9632
 20
15.9375
 30
0.0
 10
11.0304
 20
15.9146
 30
0.0
 10
11.0304
 20
15.9146
 30
0.0
 10
11.1784
 20
15.91
 30
0.0
 10
11.2616
 20
15.8981
 30
0.0
 10
11.3077
 20
15.8784
 30
0.0
 10
11.3077
 20
15.8784
 30
0.0
 10
11.419
 20
15.8681
 30
0.0
 10
11.4058
 20
15.8908
 30
0.0
 10
11.5363
 20
15.8752
 30
0.0
 10
11.5363
 20
15.8752
 30
0.0
 10
11.7232
 20
15.8423
 30
0.0
 10
12.061
 20
15.8685
 30
0.0
 10
12.1438
 20
15.823
 30
0.0
 10
12.1438
 20
15.823
 30
0.0
 10
12.1963
 20
15.8322
 30
0.0
 10
12.3049
 20
15.8374
 30
0.0
 10
12.4193
 20
15.8471
 30
0.0
 10
12.4193
 20
15.8471
 30
0.0
 10
12.5574
 20
15.8544
 30
0.0
 10
12.6573
 20
15.8501
 30
0.0
 10
12.7502
 20
15.8438
 30
0.0
 10
12.7502
 20
15.8438
 30
0.0
 10
12.8738
 20
15.8517
 30
0.0
 10
12.996
 20
15.8804
 30
0.0
 10
13.119
 20
15.8978
 30
0.0
 10
13.119
 20
15.8978
 30
0.0
 10
13.3044
 20
15.9335
 30
0.0
 10
13.2752
 20
15.8784
 30
0.0
 10
13.4126
 20
15.8998
 30
0.0
 10
13.4126
 20
15.8998
 30
0.0
 10
14.1945
 20
16.0982
 30
0.0
 10
14.7604
 20
16.3805
 30
0.0
 10
15.4041
 20
16.3654
 30
0.0
 10
15.4041
 20
16.3654
 30
0.0
 10
15.7405
 20
16.3135
 30
0.0
 10
15.9628
 20
16.2368
 30
0.0
 10
16.2417
 20
16.0645
 30
0.0
 10
16.2417
 20
16.0645
 30
0.0
 10
16.3627
 20
15.9956
 30
0.0
 10
16.508
 20
15.9098
 30
0.0
 10
16.6435
 20
15.8222
 30
0.0
 10
16.6435
 20
15.8222
 30
0.0
 10
16.7105
 20
15.7768
 30
0.0
 10
16.7753
 20
15.732
 30
0.0
 10
16.8336
 20
15.69
 30
0.0
 10
16.8336
 20
15.69
 30
0.0
 10
16.8336
 20
15.69
 30
0.0
 10
16.855
 20
15.6745
 30
0.0
 10
16.855
 20
15.6745
 30
0.0
 10
16.855
 20
15.6745
 30
0.0
 10
16.855
 20
15.6745
 30
0.0
 10
16.8602
 20
15.6705
 30
0.0
 10
16.8602
 20
15.6705
 30
0.0
 10
16.8602
 20
15.6705
 30
0.0
 10
16.8602
 20
15.6705
 30
0.0
 10
16.8629
 20
15.6686
 30
0.0
 10
16.8629
 20
15.6686
 30
0.0
 10
16.8629
 20
15.6686
 30
0.0
 10
16.8629
 20
15.6686
 30
0.0
 10
16.8642
 20
15.6676
 30
0.0
 10
16.8642
 20
15.6676
 30
0.0
 10
16.8642
 20
15.6676
 30
0.0
 10
16.8642
 20
15.6676
 30
0.0
 10
16.8643
 20
15.6675
 30
0.0
 10
16.8643
 20
15.6675
 30
0.0
 10
16.8643
 20
15.6675
 30
0.0
 10
16.8643
 20
15.6675
 30
0.0
 10
17.1248
 20
15.813
 30
0.0
 10
17.1248
 20
15.813
 30
0.0
 10
17.1248
 20
15.813
 30
0.0
 10
17.1343
 20
15.8473
 30
0.0
 10
17.1464
 20
15.8793
 30
0.0
 10
17.1532
 20
15.9076
 30
0.0
 10
17.1532
 20
15.9076
 30
0.0
 10
17.2005
 20
16.2609
 30
0.0
 10
17.2009
 20
16.7766
 30
0.0
 10
17.012
 20
17.2101
 30
0.0
 10
17.012
 20
17.2101
 30
0.0
 10
16.8842
 20
17.4607
 30
0.0
 10
16.7676
 20
17.6446
 30
0.0
 10
16.771
 20
17.9176
 30
0.0
 10
16.771
 20
17.9176
 30
0.0
 10
16.7505
 20
18.2709
 30
0.0
 10
17.0829
 20
18.6626
 30
0.0
 10
17.3743
 20
18.932
 30
0.0
 10
17.3743
 20
18.932
 30
0.0
 10
17.4737
 20
19.0451
 30
0.0
 10
17.5682
 20
19.1897
 30
0.0
 10
17.5902
 20
19.2548
 30
0.0
 10
17.5902
 20
19.2548
 30
0.0
 10
17.9581
 20
19.7929
 30
0.0
 10
18.1902
 20
20.4545
 30
0.0
 10
18.375
 20
21.0921
 30
0.0
 10
18.375
 20
21.0921
 30
0.0
 10
18.3634
 20
21.1326
 30
0.0
 10
18.4135
 20
21.2894
 30
0.0
 10
18.4155
 20
21.3633
 30
0.0
 10
18.4155
 20
21.3633
 30
0.0
 10
18.4482
 20
21.5524
 30
0.0
 10
18.4843
 20
21.5748
 30
0.0
 10
18.5136
 20
21.7238
 30
0.0
 10
18.5136
 20
21.7238
 30
0.0
 10
18.4704
 20
21.7743
 30
0.0
 10
18.5208
 20
22.0268
 30
0.0
 10
18.5235
 20
22.2249
 30
0.0
 10
18.5235
 20
22.2249
 30
0.0
 10
18.5755
 20
22.5457
 30
0.0
 10
18.5689
 20
22.7175
 30
0.0
 10
18.6072
 20
22.9606
 30
0.0
 10
18.6072
 20
22.9606
 30
0.0
 10
18.61
 20
23.0762
 30
0.0
 10
18.5936
 20
23.1027
 30
0.0
 10
18.5796
 20
23.1399
 30
0.0
 10
18.6013
 20
23.2298
 30
0.0
 10
18.5723
 20
23.4444
 30
0.0
 10
18.5681
 20
23.6007
 30
0.0
  0
SPLINE
  5
235
330
1F
100
AcDbEntity
  8
Layer 1
370
     9
100
AcDbSpline
210
0.0
220
0.0
230
1.0
 70
    13
 71
     3
 72
    52
 73
    48
 74
     0
 42
0.000000001
 43
0.0000000001
 40
0.0
 40
0.0
 40
0.0
 40
0.0
 40
0.0000000100000001
 40
0.0153846153846155
 40
0.0153846153846155
 40
0.0153846153846155
 40
0.0153846253846155
 40
0.0307692307692308
 40
0.0307692307692308
 40
0.0307692307692308
 40
1.03076923076923
 40
1.03076923076923
 40
1.03076923076923
 40
1.03076924076923
 40
1.046153846153845
 40
1.046153846153845
 40
1.046153846153845
 40
2.046153846153845
 40
2.046153846153845
 40
2.046153846153845
 40
2.046153856153845
 40
2.061538461538461
 40
2.061538461538461
 40
2.061538461538461
 40
2.061538471538461
 40
2.076923076923076
 40
2.076923076923076
 40
2.076923076923076
 40
3.076923076923076
 40
3.076923076923076
 40
3.076923076923076
 40
3.076923086923076
 40
3.092307692307691
 40
3.092307692307691
 40
3.092307692307691
 40
4.092307692307691
 40
4.092307692307691
 40
4.092307692307691
 40
4.092307702307691
 40
4.107692307692307
 40
4.107692307692307
 40
4.107692307692307
 40
5.107692307692307
 40
5.107692307692307
 40
5.107692307692307
 40
5.107692317692308
 40
5.123076923076922
 40
5.123076923076922
 40
5.123076923076922
 40
5.123076923076922
 10
32.7369
 20
7.4061
 30
0.0
 41
1.0
 10
32.7369
 20
7.4061
 30
0.0
 41
1.0
 10
32.7113
 20
7.426099999999999
 30
0.0
 41
1.0
 10
32.6939
 20
7.4485
 30
0.0
 41
1.0
 10
32.6695
 20
7.469299999999998
 30
0.0
 41
1.0
 10
32.6695
 20
7.469299999999998
 30
0.0
 41
1.0
 10
32.5759
 20
7.481799999999998
 30
0.0
 41
1.0
 10
32.4592
 20
7.474
 30
0.0
 41
1.0
 10
32.3818
 20
7.473499999999998
 30
0.0
 41
1.0
 10
32.43136666666666
 20
7.994499999999998
 30
0.0
 41
1.0
 10
32.48093333333333
 20
8.515499999999999
 30
0.0
 41
1.0
 10
32.5305
 20
9.0365
 30
0.0
 41
1.0
 10
32.5305
 20
9.0365
 30
0.0
 41
1.0
 10
32.5098
 20
9.0592
 30
0.0
 41
1.0
 10
32.5086
 20
9.086
 30
0.0
 41
1.0
 10
32.506
 20
9.112199999999999
 30
0.0
 41
1.0
 10
32.54486666666667
 20
9.151966666666664
 30
0.0
 41
1.0
 10
32.58373333333334
 20
9.191733333333333
 30
0.0
 41
1.0
 10
32.6226
 20
9.231500000000002
 30
0.0
 41
1.0
 10
32.6226
 20
9.2315
 30
0.0
 41
1.0
 10
32.6682
 20
9.1667
 30
0.0
 41
1.0
 10
32.7304
 20
9.2116
 30
0.0
 41
1.0
 10
32.7879
 20
9.225799999999999
 30
0.0
 41
1.0
 10
32.7879
 20
9.225799999999999
 30
0.0
 41
1.0
 10
32.8394
 20
9.221799999999999
 30
0.0
 41
1.0
 10
32.8938
 20
9.2367
 30
0.0
 41
1.0
 10
32.9477
 20
9.247999999999999
 30
0.0
 41
1.0
 10
33.04826666666667
 20
9.302933333333333
 30
0.0
 41
1.0
 10
33.14883333333334
 20
9.357866666666668
 30
0.0
 41
1.0
 10
33.2494
 20
9.412800000000002
 30
0.0
 41
1.0
 10
33.2494
 20
9.4128
 30
0.0
 41
1.0
 10
33.2435
 20
9.391899999999999
 30
0.0
 41
1.0
 10
33.2301
 20
9.3792
 30
0.0
 41
1.0
 10
33.2308
 20
9.3609
 30
0.0
 41
1.0
 10
33.16323333333334
 20
9.253033333333334
 30
0.0
 41
1.0
 10
33.09566666666667
 20
9.145166666666668
 30
0.0
 41
1.0
 10
33.02810000000001
 20
9.037300000000001
 30
0.0
 41
1.0
 10
33.0281
 20
9.0373
 30
0.0
 41
1.0
 10
33.0471
 20
8.9428
 30
0.0
 41
1.0
 10
33.0121
 20
8.8734
 30
0.0
 41
1.0
 10
33.0285
 20
8.7888
 30
0.0
 41
1.0
 10
32.99013333333335
 20
8.397166666666667
 30
0.0
 41
1.0
 10
32.95176666666668
 20
8.005533333333332
 30
0.0
 41
1.0
 10
32.91340000000001
 20
7.613899999999999
 30
0.0
 41
1.0
 10
32.9134
 20
7.6139
 30
0.0
 41
1.0
 10
32.85880000000001
 20
7.5566
 30
0.0
 41
1.0
 10
32.8151
 20
7.5015
 30
0.0
 41
1.0
 10
32.7369
 20
7.4061
 30
0.0
 41
1.0
  0
SPLINE
  5
263
330
1F
100
AcDbEntity
  8
Layer 1
370
     9
100
AcDbSpline
210
0.0
220
0.0
230
1.0
 70
    12
 71
     3
 72
   106
 73
   102
 74
     0
 42
0.000000001
 43
0.0000000001
 40
0.0
 40
0.0
 40
0.0
 40
0.0
 40
0.00000001
 40
0.0166666666666666
 40
0.0166666666666666
 40
0.0166666666666666
 40
0.0166666766666666
 40
0.0333333333333334
 40
0.0333333333333334
 40
0.0333333333333334
 40
1.033333333333333
 40
1.033333333333333
 40
1.033333333333333
 40
1.033333343333333
 40
1.05
 40
1.05
 40
1.05
 40
1.05000001
 40
1.066666666666666
 40
1.066666666666666
 40
1.066666666666666
 40
1.066666676666666
 40
1.083333333333333
 40
1.083333333333333
 40
1.083333333333333
 40
1.083333343333333
 40
1.1
 40
1.1
 40
1.1
 40
1.10000001
 40
1.116666666666666
 40
1.116666666666666
 40
1.116666666666666
 40
1.116666676666666
 40
1.133333333333333
 40
1.133333333333333
 40
1.133333333333333
 40
1.133333343333333
 40
1.149999999999999
 40
1.149999999999999
 40
1.149999999999999
 40
1.15000001
 40
1.166666666666666
 40
1.166666666666666
 40
1.166666666666666
 40
1.166666676666666
 40
1.183333333333333
 40
1.183333333333333
 40
1.183333333333333
 40
1.183333343333333
 40
1.2
 40
1.2
 40
1.2
 40
1.20000001
 40
1.216666666666666
 40
1.216666666666666
 40
1.216666666666666
 40
1.216666676666666
 40
1.233333333333333
 40
1.233333333333333
 40
1.233333333333333
 40
1.233333343333333
 40
1.25
 40
1.25
 40
1.25
 40
2.25
 40
2.25
 40
2.25
 40
2.25000001
 40
2.266666666666666
 40
2.266666666666666
 40
2.266666666666666
 40
2.266666676666666
 40
2.283333333333333
 40
2.283333333333333
 40
2.283333333333333
 40
3.283333333333333
 40
3.283333333333333
 40
3.283333333333333
 40
3.283333343333333
 40
3.299999999999999
 40
3.299999999999999
 40
3.299999999999999
 40
4.299999999999999
 40
4.299999999999999
 40
4.299999999999999
 40
4.30000001
 40
4.316666666666666
 40
4.316666666666666
 40
4.316666666666666
 40
5.316666666666666
 40
5.316666666666666
 40
5.316666666666666
 40
6.316666666666666
 40
6.316666666666666
 40
6.316666666666666
 40
6.316666676666666
 40
6.333333333333333
 40
6.333333333333333
 40
6.333333333333333
 40
7.333333333333333
 40
7.333333333333333
 40
7.333333333333333
 40
7.333333333333333
 10
31.1625
 20
9.971199999999999
 30
0.0
 41
1.0
 10
31.1625
 20
9.971199999999999
 30
0.0
 41
1.0
 10
31.1708
 20
9.9892
 30
0.0
 41
1.0
 10
31.1916
 20
10.0053
 30
0.0
 41
1.0
 10
31.2165
 20
10.0204
 30
0.0
 41
1.0
 10
31.2165
 20
10.0204
 30
0.0
 41
1.0
 10
31.1897
 20
10.0314
 30
0.0
 41
1.0
 10
31.1767
 20
10.0495
 30
0.0
 41
1.0
 10
31.1424
 20
10.0589
 30
0.0
 41
1.0
 10
31.17133333333333
 20
10.25019999999999
 30
0.0
 41
1.0
 10
31.20026666666667
 20
10.44149999999999
 30
0.0
 41
1.0
 10
31.22920000000001
 20
10.6328
 30
0.0
 41
1.0
 10
31.2292
 20
10.6328
 30
0.0
 41
1.0
 10
31.3079
 20
10.6819
 30
0.0
 41
1.0
 10
31.3974
 20
10.72
 30
0.0
 41
1.0
 10
31.4792
 20
10.7357
 30
0.0
 41
1.0
 10
31.4792
 20
10.7357
 30
0.0
 41
1.0
 10
31.553
 20
10.8019
 30
0.0
 41
1.0
 10
31.6241
 20
10.7962
 30
0.0
 41
1.0
 10
31.7208
 20
10.8148
 30
0.0
 41
1.0
 10
31.7208
 20
10.8148
 30
0.0
 41
1.0
 10
31.8611
 20
10.8434
 30
0.0
 41
1.0
 10
31.914
 20
10.9001
 30
0.0
 41
1.0
 10
32.0541
 20
10.8892
 30
0.0
 41
1.0
 10
32.0541
 20
10.8892
 30
0.0
 41
1.0
 10
32.08740000000001
 20
10.8723
 30
0.0
 41
1.0
 10
32.1194
 20
10.8584
 30
0.0
 41
1.0
 10
32.149
 20
10.8489
 30
0.0
 41
1.0
 10
32.149
 20
10.8489
 30
0.0
 41
1.0
 10
32.149
 20
10.8489
 30
0.0
 41
1.0
 10
32.1916
 20
10.838
 30
0.0
 41
1.0
 10
32.1916
 20
10.838
 30
0.0
 41
1.0
 10
32.1916
 20
10.838
 30
0.0
 41
1.0
 10
32.1916
 20
10.838
 30
0.0
 41
1.0
 10
32.2015
 20
10.8364
 30
0.0
 41
1.0
 10
32.2015
 20
10.8364
 30
0.0
 41
1.0
 10
32.2015
 20
10.8364
 30
0.0
 41
1.0
 10
32.2015
 20
10.8364
 30
0.0
 41
1.0
 10
32.2064
 20
10.8357
 30
0.0
 41
1.0
 10
32.2064
 20
10.8357
 30
0.0
 41
1.0
 10
32.2064
 20
10.8357
 30
0.0
 41
1.0
 10
32.2064
 20
10.8357
 30
0.0
 41
1.0
 10
32.2087
 20
10.8354
 30
0.0
 41
1.0
 10
32.2087
 20
10.8354
 30
0.0
 41
1.0
 10
32.2087
 20
10.8354
 30
0.0
 41
1.0
 10
32.2087
 20
10.8354
 30
0.0
 41
1.0
 10
32.21
 20
10.8353
 30
0.0
 41
1.0
 10
32.21
 20
10.8353
 30
0.0
 41
1.0
 10
32.21
 20
10.8353
 30
0.0
 41
1.0
 10
32.21
 20
10.8353
 30
0.0
 41
1.0
 10
32.2101
 20
10.8353
 30
0.0
 41
1.0
 10
32.2101
 20
10.8353
 30
0.0
 41
1.0
 10
32.2101
 20
10.8353
 30
0.0
 41
1.0
 10
32.2101
 20
10.8353
 30
0.0
 41
1.0
 10
32.2102
 20
10.8353
 30
0.0
 41
1.0
 10
32.2102
 20
10.8353
 30
0.0
 41
1.0
 10
32.2102
 20
10.8353
 30
0.0
 41
1.0
 10
32.1963
 20
10.8284
 30
0.0
 41
1.0
 10
32.2424
 20
10.8515
 30
0.0
 41
1.0
 10
32.2928
 20
10.8765
 30
0.0
 41
1.0
 10
32.2928
 20
10.8765
 30
0.0
 41
1.0
 10
32.29890000000001
 20
10.8549
 30
0.0
 41
1.0
 10
32.3099
 20
10.8321
 30
0.0
 41
1.0
 10
32.3059
 20
10.8125
 30
0.0
 41
1.0
 10
32.38733333333335
 20
10.46866666666666
 30
0.0
 41
1.0
 10
32.46876666666667
 20
10.12483333333333
 30
0.0
 41
1.0
 10
32.5502
 20
9.781
 30
0.0
 41
1.0
 10
32.5502
 20
9.781
 30
0.0
 41
1.0
 10
32.5391
 20
9.7193
 30
0.0
 41
1.0
 10
32.5555
 20
9.6798
 30
0.0
 41
1.0
 10
32.5317
 20
9.631
 30
0.0
 41
1.0
 10
32.5317
 20
9.631
 30
0.0
 41
1.0
 10
32.5232
 20
9.5914
 30
0.0
 41
1.0
 10
32.5343
 20
9.526099999999999
 30
0.0
 41
1.0
 10
32.4997
 20
9.5089
 30
0.0
 41
1.0
 10
32.34416666666667
 20
9.39206666666667
 30
0.0
 41
1.0
 10
32.18863333333334
 20
9.275233333333336
 30
0.0
 41
1.0
 10
32.0331
 20
9.158400000000002
 30
0.0
 41
1.0
 10
32.0331
 20
9.1584
 30
0.0
 41
1.0
 10
31.9119
 20
9.147299999999999
 30
0.0
 41
1.0
 10
31.806
 20
9.0724
 30
0.0
 41
1.0
 10
31.6896
 20
9.038199999999999
 30
0.0
 41
1.0
 10
31.63056666666667
 20
8.989833333333333
 30
0.0
 41
1.0
 10
31.57153333333333
 20
8.941466666666666
 30
0.0
 41
1.0
 10
31.5125
 20
8.8931
 30
0.0
 41
1.0
 10
31.5125
 20
8.8931
 30
0.0
 41
1.0
 10
31.4746
 20
8.888299999999997
 30
0.0
 41
1.0
 10
31.4493
 20
8.878299999999997
 30
0.0
 41
1.0
 10
31.4235
 20
8.8762
 30
0.0
 41
1.0
 10
31.41333333333334
 20
8.86603333333333
 30
0.0
 41
1.0
 10
31.40316666666667
 20
8.855866666666662
 30
0.0
 41
1.0
 10
31.39300000000001
 20
8.845699999999993
 30
0.0
 41
1.0
 10
31.393
 20
8.975466666666667
 30
0.0
 41
1.0
 10
31.393
 20
9.105233333333334
 30
0.0
 41
1.0
 10
31.393
 20
9.235000000000001
 30
0.0
 41
1.0
 10
31.393
 20
9.234999999999999
 30
0.0
 41
1.0
 10
31.3252
 20
9.3817
 30
0.0
 41
1.0
 10
31.2586
 20
9.5769
 30
0.0
 41
1.0
 10
31.2054
 20
9.7443
 30
0.0
 41
1.0
 10
31.18960411688201
 20
9.819933333333336
 30
0.0
 41
1.0
 10
31.17380823376401
 20
9.895566666666667
 30
0.0
 41
1.0
 10
31.15801235064602
 20
9.971199999999997
 30
0.0
 41
1.0
  0
SPLINE
  5
290
330
1F
100
AcDbEntity
  8
Layer 1
370
     9
100
AcDbSpline
210
0.0
220
0.0
230
1.0
 70
    13
 71
     3
 72
    55
 73
    51
 74
     0
 42
0.000000001
 43
0.0000000001
 40
0.0
 40
0.0
 40
0.0
 40
0.0
 40
0.00000001
 40
0.0303030303030303
 40
0.0303030303030303
 40
0.0303030303030303
 40
0.0303030403030303
 40
0.0606060606060606
 40
0.0606060606060606
 40
0.0606060606060606
 40
0.0606060706060606
 40
0.0909090909090909
 40
0.0909090909090909
 40
0.0909090909090909
 40
1.09090909090909
 40
1.09090909090909
 40
1.09090909090909
 40
1.09090910090909
 40
1.121212121212121
 40
1.121212121212121
 40
1.121212121212121
 40
1.121212131212121
 40
1.151515151515151
 40
1.151515151515151
 40
1.151515151515151
 40
1.151515161515151
 40
1.181818181818181
 40
1.181818181818181
 40
1.181818181818181
 40
1.181818191818181
 40
1.212121212121211
 40
1.212121212121211
 40
1.212121212121211
 40
1.212121222121212
 40
1.242424242424242
 40
1.242424242424242
 40
1.242424242424242
 40
1.242424252424242
 40
1.272727272727272
 40
1.272727272727272
 40
1.272727272727272
 40
2.272727272727272
 40
2.272727272727272
 40
2.272727272727272
 40
2.272727282727272
 40
2.303030303030302
 40
2.303030303030302
 40
2.303030303030302
 40
2.303030313030302
 40
2.333333333333333
 40
2.333333333333333
 40
2.333333333333333
 40
2.333333333333333
 10
30.8569
 20
8.723599999999999
 30
0.0
 41
1.0
 10
30.8569
 20
8.723599999999999
 30
0.0
 41
1.0
 10
30.7772
 20
8.6889
 30
0.0
 41
1.0
 10
30.6655
 20
8.6204
 30
0.0
 41
1.0
 10
30.5932
 20
8.616799999999999
 30
0.0
 41
1.0
 10
30.5932
 20
8.616799999999999
 30
0.0
 41
1.0
 10
30.5044
 20
8.5509
 30
0.0
 41
1.0
 10
30.3538
 20
8.5167
 30
0.0
 41
1.0
 10
30.2153
 20
8.4961
 30
0.0
 41
1.0
 10
30.2153
 20
8.4961
 30
0.0
 41
1.0
 10
30.143
 20
8.4594
 30
0.0
 41
1.0
 10
30.054
 20
8.454
 30
0.0
 41
1.0
 10
29.84798086910567
 20
8.403761728326996
 30
0.0
 41
1.0
 10
29.70835391273712
 20
8.780307818884665
 30
0.0
 41
1.0
 10
29.56872695636856
 20
9.156853909442332
 30
0.0
 41
1.0
 10
29.4291
 20
9.5334
 30
0.0
 41
1.0
 10
29.4291
 20
9.5334
 30
0.0
 41
1.0
 10
29.4222
 20
9.626099999999999
 30
0.0
 41
1.0
 10
29.409
 20
9.680799999999999
 30
0.0
 41
1.0
 10
29.427
 20
9.746299999999999
 30
0.0
 41
1.0
 10
29.427
 20
9.746299999999999
 30
0.0
 41
1.0
 10
29.4879
 20
9.781399999999999
 30
0.0
 41
1.0
 10
29.5416
 20
9.821899999999999
 30
0.0
 41
1.0
 10
29.5759
 20
9.864499999999999
 30
0.0
 41
1.0
 10
29.5759
 20
9.864499999999999
 30
0.0
 41
1.0
 10
29.6776
 20
9.960699999999999
 30
0.0
 41
1.0
 10
29.7777
 20
10.0544
 30
0.0
 41
1.0
 10
29.8814
 20
10.1311
 30
0.0
 41
1.0
 10
29.8814
 20
10.1311
 30
0.0
 41
1.0
 10
29.9534
 20
10.1813
 30
0.0
 41
1.0
 10
30.0484
 20
10.2385
 30
0.0
 41
1.0
 10
30.1063
 20
10.2488
 30
0.0
 41
1.0
 10
30.1063
 20
10.2488
 30
0.0
 41
1.0
 10
30.227
 20
10.3441
 30
0.0
 41
1.0
 10
30.3802
 20
10.4071
 30
0.0
 41
1.0
 10
30.5429
 20
10.4335
 30
0.0
 41
1.0
 10
30.5429
 20
10.4335
 30
0.0
 41
1.0
 10
30.6408
 20
10.3339
 30
0.0
 41
1.0
 10
30.6604
 20
10.2864
 30
0.0
 41
1.0
 10
30.7041
 20
10.2342
 30
0.0
 41
1.0
 10
30.80716666666667
 20
9.939033333333332
 30
0.0
 41
1.0
 10
30.91023333333334
 20
9.643866666666665
 30
0.0
 41
1.0
 10
31.01330000000001
 20
9.348699999999999
 30
0.0
 41
1.0
 10
31.0133
 20
9.348699999999999
 30
0.0
 41
1.0
 10
31.0973
 20
9.1094
 30
0.0
 41
1.0
 10
31.17
 20
8.8945
 30
0.0
 41
1.0
 10
31.095
 20
8.850899999999997
 30
0.0
 41
1.0
 10
31.095
 20
8.850899999999997
 30
0.0
 41
1.0
 10
31.0218
 20
8.806699999999997
 30
0.0
 41
1.0
 10
30.9516
 20
8.751699999999999
 30
0.0
 41
1.0
 10
30.8569
 20
8.723599999999999
 30
0.0
 41
1.0
  0
SPLINE
  5
2AE
330
1F
100
AcDbEntity
  8
Layer 1
370
     9
100
AcDbSpline
210
0.0
220
0.0
230
1.0
 70
    13
 71
     3
 72
    42
 73
    38
 74
     0
 42
0.000000001
 43
0.0000000001
 40
0.0
 40
0.0
 40
0.0
 40
0.0
 40
1.0
 40
1.0
 40
1.0
 40
1.000000009999999
 40
1.028571428571428
 40
1.028571428571428
 40
1.028571428571428
 40
1.028571438571428
 40
1.057142857142857
 40
1.057142857142857
 40
1.057142857142857
 40
1.057142867142857
 40
1.085714285714285
 40
1.085714285714285
 40
1.085714285714285
 40
1.085714295714285
 40
1.114285714285714
 40
1.114285714285714
 40
1.114285714285714
 40
2.114285714285714
 40
2.114285714285714
 40
2.114285714285714
 40
2.114285724285714
 40
2.142857142857142
 40
2.142857142857142
 40
2.142857142857142
 40
3.142857142857142
 40
3.142857142857142
 40
3.142857142857142
 40
3.142857152857142
 40
3.171428571428571
 40
3.171428571428571
 40
3.171428571428571
 40
3.171428581428571
 40
3.199999999999999
 40
3.199999999999999
 40
3.199999999999999
 40
3.199999999999999
 10
27.69052034903828
 20
7.919500000000002
 30
0.0
 41
1.0
 10
27.68234689935885
 20
8.312300000000002
 30
0.0
 41
1.0
 10
27.67417344967943
 20
8.705100000000001
 30
0.0
 41
1.0
 10
27.666
 20
9.0979
 30
0.0
 41
1.0
 10
27.666
 20
9.097899999999999
 30
0.0
 41
1.0
 10
27.8558
 20
9.295799999999999
 30
0.0
 41
1.0
 10
28.083
 20
9.474299999999999
 30
0.0
 41
1.0
 10
28.3224
 20
9.524699999999999
 30
0.0
 41
1.0
 10
28.3224
 20
9.524699999999999
 30
0.0
 41
1.0
 10
28.5174
 20
9.6156
 30
0.0
 41
1.0
 10
28.7446
 20
9.618999999999999
 30
0.0
 41
1.0
 10
29.0606
 20
9.6339
 30
0.0
 41
1.0
 10
29.0606
 20
9.6339
 30
0.0
 41
1.0
 10
29.104
 20
9.6317
 30
0.0
 41
1.0
 10
29.1588
 20
9.641099999999999
 30
0.0
 41
1.0
 10
29.2162
 20
9.657099999999999
 30
0.0
 41
1.0
 10
29.2162
 20
9.657099999999999
 30
0.0
 41
1.0
 10
29.2496
 20
9.5896
 30
0.0
 41
1.0
 10
29.2572
 20
9.5418
 30
0.0
 41
1.0
 10
29.2804
 20
9.491799999999999
 30
0.0
 41
1.0
 10
29.37543333333335
 20
9.094766666666666
 30
0.0
 41
1.0
 10
29.47046666666668
 20
8.697733333333333
 30
0.0
 41
1.0
 10
29.56550000000001
 20
8.3007
 30
0.0
 41
1.0
 10
29.5655
 20
8.3007
 30
0.0
 41
1.0
 10
29.4776
 20
8.2544
 30
0.0
 41
1.0
 10
29.3885
 20
8.211299999999999
 30
0.0
 41
1.0
 10
29.2976
 20
8.160999999999999
 30
0.0
 41
1.0
 10
29.0902
 20
8.103633333333331
 30
0.0
 41
1.0
 10
28.8828
 20
8.046266666666664
 30
0.0
 41
1.0
 10
28.6754
 20
7.988899999999999
 30
0.0
 41
1.0
 10
28.6754
 20
7.9889
 30
0.0
 41
1.0
 10
28.5712
 20
7.931199999999998
 30
0.0
 41
1.0
 10
28.4059
 20
7.9206
 30
0.0
 41
1.0
 10
28.2588
 20
7.924999999999998
 30
0.0
 41
1.0
 10
28.2588
 20
7.924999999999998
 30
0.0
 41
1.0
 10
28.1766
 20
7.904499999999998
 30
0.0
 41
1.0
 10
28.0835
 20
7.9157
 30
0.0
 41
1.0
 10
27.69052034903828
 20
7.9195
 30
0.0
 41
1.0
  0
SPLINE
  5
2DD
330
1F
100
AcDbEntity
  8
Layer 1
370
     9
100
AcDbSpline
210
0.0
220
0.0
230
1.0
 70
    13
 71
     3
 72
    38
 73
    34
 74
     0
 42
0.000000001
 43
0.0000000001
 40
0.0
 40
0.0
 40
0.0
 40
0.0
 40
0.9999999999999998
 40
0.9999999999999998
 40
0.9999999999999998
 40
1.000000009999999
 40
1.016949152542372
 40
1.016949152542372
 40
1.016949152542372
 40
1.016949162542372
 40
1.033898305084745
 40
1.033898305084745
 40
1.033898305084745
 40
1.033898315084745
 40
1.050847457627118
 40
1.050847457627118
 40
1.050847457627118
 40
1.050847467627118
 40
1.067796610169491
 40
1.067796610169491
 40
1.067796610169491
 40
2.067796610169491
 40
2.067796610169491
 40
2.067796610169491
 40
2.067796620169491
 40
2.084745762711864
 40
2.084745762711864
 40
2.084745762711864
 40
3.084745762711864
 40
3.084745762711864
 40
3.084745762711864
 40
3.084745772711864
 40
3.101694915254237
 40
3.101694915254237
 40
3.101694915254237
 40
3.101694915254237
 10
29.2211
 20
7.830699999999998
 30
0.0
 41
1.0
 10
29.22276666666667
 20
7.405366666666665
 30
0.0
 41
1.0
 10
29.22443333333333
 20
6.980033333333333
 30
0.0
 41
1.0
 10
29.2261
 20
6.5547
 30
0.0
 41
1.0
 10
29.2261
 20
6.5547
 30
0.0
 41
1.0
 10
29.2261
 20
6.5547
 30
0.0
 41
1.0
 10
29.0614
 20
6.4389
 30
0.0
 41
1.0
 10
29.0614
 20
6.4389
 30
0.0
 41
1.0
 10
29.0614
 20
6.4389
 30
0.0
 41
1.0
 10
28.8026
 20
6.3197
 30
0.0
 41
1.0
 10
28.6371
 20
6.2141
 30
0.0
 41
1.0
 10
28.4074
 20
6.1988
 30
0.0
 41
1.0
 10
28.4074
 20
6.1988
 30
0.0
 41
1.0
 10
28.21800000000001
 20
6.154399999999998
 30
0.0
 41
1.0
 10
27.9838
 20
6.193399999999998
 30
0.0
 41
1.0
 10
27.9048
 20
6.312999999999998
 30
0.0
 41
1.0
 10
27.9048
 20
6.312999999999998
 30
0.0
 41
1.0
 10
27.8583
 20
6.332399999999998
 30
0.0
 41
1.0
 10
27.8135
 20
6.3714
 30
0.0
 41
1.0
 10
27.7692
 20
6.418599999999998
 30
0.0
 41
1.0
 10
27.73876666666667
 20
6.777766666666666
 30
0.0
 41
1.0
 10
27.70833333333334
 20
7.136933333333333
 30
0.0
 41
1.0
 10
27.6779
 20
7.4961
 30
0.0
 41
1.0
 10
27.6779
 20
7.4961
 30
0.0
 41
1.0
 10
27.6779
 20
7.4961
 30
0.0
 41
1.0
 10
27.7872
 20
7.595799999999998
 30
0.0
 41
1.0
 10
27.7872
 20
7.595799999999998
 30
0.0
 41
1.0
 10
28.20356666666667
 20
7.652866666666666
 30
0.0
 41
1.0
 10
28.61993333333333
 20
7.709933333333333
 30
0.0
 41
1.0
 10
29.0363
 20
7.767000000000001
 30
0.0
 41
1.0
 10
29.0363
 20
7.767
 30
0.0
 41
1.0
 10
29.0938
 20
7.7877
 30
0.0
 41
1.0
 10
29.1562
 20
7.8086
 30
0.0
 41
1.0
 10
29.2211
 20
7.8307
 30
0.0
 41
1.0
  0
SPLINE
  5
318
330
1F
100
AcDbEntity
  8
Layer 1
370
     9
100
AcDbSpline
210
0.0
220
0.0
230
1.0
 70
    13
 71
     3
 72
    45
 73
    41
 74
     0
 42
0.000000001
 43
0.0000000001
 40
0.0
 40
0.0
 40
0.0
 40
0.0
 40
0.9999999999999998
 40
0.9999999999999998
 40
0.9999999999999998
 40
1.000000009999999
 40
1.018867924528302
 40
1.018867924528302
 40
1.018867924528302
 40
1.018867934528302
 40
1.037735849056603
 40
1.037735849056603
 40
1.037735849056603
 40
1.037735859056604
 40
1.056603773584905
 40
1.056603773584905
 40
1.056603773584905
 40
2.056603773584905
 40
2.056603773584905
 40
2.056603773584905
 40
2.056603783584905
 40
2.075471698113207
 40
2.075471698113207
 40
2.075471698113207
 40
3.075471698113207
 40
3.075471698113207
 40
3.075471698113207
 40
3.075471708113207
 40
3.094339622641509
 40
3.094339622641509
 40
3.094339622641509
 40
4.094339622641509
 40
4.094339622641509
 40
4.094339622641509
 40
4.094339632641509
 40
4.113207547169811
 40
4.113207547169811
 40
4.113207547169811
 40
4.113207557169811
 40
4.132075471698113
 40
4.132075471698113
 40
4.132075471698113
 40
4.132075471698113
 10
30.96990000000001
 20
7.8736
 30
0.0
 41
1.0
 10
30.92310000000001
 20
7.596166666666666
 30
0.0
 41
1.0
 10
30.87630000000001
 20
7.318733333333333
 30
0.0
 41
1.0
 10
30.8295
 20
7.041299999999999
 30
0.0
 41
1.0
 10
30.8295
 20
7.041299999999998
 30
0.0
 41
1.0
 10
30.7113
 20
6.9531
 30
0.0
 41
1.0
 10
30.6992
 20
7.030599999999998
 30
0.0
 41
1.0
 10
30.6056
 20
6.9836
 30
0.0
 41
1.0
 10
30.6056
 20
6.9836
 30
0.0
 41
1.0
 10
30.3603
 20
6.812599999999998
 30
0.0
 41
1.0
 10
30.1143
 20
6.692899999999998
 30
0.0
 41
1.0
 10
29.8939
 20
6.649
 30
0.0
 41
1.0
 10
29.8939
 20
6.649
 30
0.0
 41
1.0
 10
29.8642
 20
6.642699999999998
 30
0.0
 41
1.0
 10
29.8353
 20
6.6382
 30
0.0
 41
1.0
 10
29.8072
 20
6.635399999999998
 30
0.0
 41
1.0
 10
29.67320000000001
 20
7.055633333333333
 30
0.0
 41
1.0
 10
29.53920000000001
 20
7.475866666666666
 30
0.0
 41
1.0
 10
29.40520000000001
 20
7.896099999999999
 30
0.0
 41
1.0
 10
29.4052
 20
7.896099999999998
 30
0.0
 41
1.0
 10
29.5313
 20
7.943299999999998
 30
0.0
 41
1.0
 10
29.6603
 20
7.998199999999998
 30
0.0
 41
1.0
 10
29.7789
 20
8.0676
 30
0.0
 41
1.0
 10
30.01253333333333
 20
8.139933333333333
 30
0.0
 41
1.0
 10
30.24616666666667
 20
8.212266666666666
 30
0.0
 41
1.0
 10
30.4798
 20
8.284599999999999
 30
0.0
 41
1.0
 10
30.4798
 20
8.284599999999999
 30
0.0
 41
1.0
 10
30.6305
 20
8.327099999999997
 30
0.0
 41
1.0
 10
30.7994
 20
8.3916
 30
0.0
 41
1.0
 10
30.9593
 20
8.436199999999999
 30
0.0
 41
1.0
 10
30.95803333333333
 20
8.366599999999996
 30
0.0
 41
1.0
 10
30.95676666666667
 20
8.296999999999997
 30
0.0
 41
1.0
 10
30.9555
 20
8.227399999999997
 30
0.0
 41
1.0
 10
30.9555
 20
8.227399999999999
 30
0.0
 41
1.0
 10
30.9894
 20
8.138099999999999
 30
0.0
 41
1.0
 10
30.9642
 20
8.0654
 30
0.0
 41
1.0
 10
30.9913
 20
7.984399999999999
 30
0.0
 41
1.0
 10
30.9913
 20
7.984399999999999
 30
0.0
 41
1.0
 10
30.975
 20
7.941399999999998
 30
0.0
 41
1.0
 10
30.9889
 20
7.9123
 30
0.0
 41
1.0
 10
30.9699
 20
7.873599999999998
 30
0.0
 41
1.0
  0
SPLINE
  5
337
330
1F
100
AcDbEntity
  8
Layer 1
370
     9
100
AcDbSpline
210
0.0
220
0.0
230
1.0
 70
    13
 71
     3
 72
    41
 73
    37
 74
     0
 42
0.000000001
 43
0.0000000001
 40
0.0
 40
0.0
 40
0.0
 40
0.0
 40
0.9999999999999998
 40
0.9999999999999998
 40
0.9999999999999998
 40
1.00000001
 40
1.017241379310344
 40
1.017241379310344
 40
1.017241379310344
 40
1.017241389310344
 40
1.034482758620689
 40
1.034482758620689
 40
1.034482758620689
 40
1.034482768620689
 40
1.051724137931034
 40
1.051724137931034
 40
1.051724137931034
 40
2.051724137931034
 40
2.051724137931034
 40
2.051724137931034
 40
2.051724147931034
 40
2.068965517241379
 40
2.068965517241379
 40
2.068965517241379
 40
3.068965517241379
 40
3.068965517241379
 40
3.068965517241379
 40
3.068965527241379
 40
3.086206896551724
 40
3.086206896551724
 40
3.086206896551724
 40
4.086206896551724
 40
4.086206896551724
 40
4.086206896551724
 40
4.086206906551724
 40
4.103448275862069
 40
4.103448275862069
 40
4.103448275862069
 40
4.103448275862069
 10
31.3028
 20
7.035999999999999
 30
0.0
 41
1.0
 10
31.2994
 20
7.572099999999999
 30
0.0
 41
1.0
 10
31.296
 20
8.1082
 30
0.0
 41
1.0
 10
31.2926
 20
8.644300000000001
 30
0.0
 41
1.0
 10
31.2926
 20
8.644299999999999
 30
0.0
 41
1.0
 10
31.3345
 20
8.673199999999999
 30
0.0
 41
1.0
 10
31.3657
 20
8.716699999999999
 30
0.0
 41
1.0
 10
31.3882
 20
8.7665
 30
0.0
 41
1.0
 10
31.3882
 20
8.7665
 30
0.0
 41
1.0
 10
31.4015
 20
8.766799999999998
 30
0.0
 41
1.0
 10
31.4149
 20
8.7672
 30
0.0
 41
1.0
 10
31.4271
 20
8.7667
 30
0.0
 41
1.0
 10
31.4271
 20
8.7667
 30
0.0
 41
1.0
 10
31.4786
 20
8.7483
 30
0.0
 41
1.0
 10
31.5403
 20
8.7484
 30
0.0
 41
1.0
 10
31.6003
 20
8.747099999999999
 30
0.0
 41
1.0
 10
31.81263333333333
 20
8.820699999999995
 30
0.0
 41
1.0
 10
32.02496666666667
 20
8.894299999999995
 30
0.0
 41
1.0
 10
32.2373
 20
8.967899999999996
 30
0.0
 41
1.0
 10
32.2373
 20
8.9679
 30
0.0
 41
1.0
 10
32.2818
 20
8.977399999999997
 30
0.0
 41
1.0
 10
32.3229
 20
8.974899999999998
 30
0.0
 41
1.0
 10
32.3634
 20
8.967999999999998
 30
0.0
 41
1.0
 10
32.30379999999999
 20
8.455766666666665
 30
0.0
 41
1.0
 10
32.24419999999999
 20
7.943533333333332
 30
0.0
 41
1.0
 10
32.1846
 20
7.431299999999999
 30
0.0
 41
1.0
 10
32.1846
 20
7.4313
 30
0.0
 41
1.0
 10
32.1368
 20
7.4172
 30
0.0
 41
1.0
 10
32.1016
 20
7.407799999999999
 30
0.0
 41
1.0
 10
32.0728
 20
7.407499999999998
 30
0.0
 41
1.0
 10
31.85413333333334
 20
7.256266666666665
 30
0.0
 41
1.0
 10
31.63546666666667
 20
7.105033333333332
 30
0.0
 41
1.0
 10
31.4168
 20
6.953799999999999
 30
0.0
 41
1.0
 10
31.4168
 20
6.9538
 30
0.0
 41
1.0
 10
31.3624
 20
6.957799999999998
 30
0.0
 41
1.0
 10
31.3287
 20
6.996699999999998
 30
0.0
 41
1.0
 10
31.3028
 20
7.036
 30
0.0
 41
1.0
  0
SPLINE
  5
370
330
1F
100
AcDbEntity
  8
Layer 1
370
     9
100
AcDbSpline
210
0.0
220
0.0
230
1.0
 70
    13
 71
     3
 72
    58
 73
    54
 74
     0
 42
0.000000001
 43
0.0000000001
 40
0.0
 40
0.0
 40
0.0
 40
0.0
 40
0.00000001
 40
0.0232558139534883
 40
0.0232558139534883
 40
0.0232558139534883
 40
0.0232558239534883
 40
0.0465116279069767
 40
0.0465116279069767
 40
0.0465116279069767
 40
0.0465116379069767
 40
0.0697674418604651
 40
0.0697674418604651
 40
0.0697674418604651
 40
0.0697674518604651
 40
0.0930232558139535
 40
0.0930232558139535
 40
0.0930232558139535
 40
1.093023255813953
 40
1.093023255813953
 40
1.093023255813953
 40
1.093023265813953
 40
1.116279069767441
 40
1.116279069767441
 40
1.116279069767441
 40
2.116279069767441
 40
2.116279069767441
 40
2.116279069767441
 40
2.116279079767441
 40
2.13953488372093
 40
2.13953488372093
 40
2.13953488372093
 40
2.139534893720929
 40
2.162790697674418
 40
2.162790697674418
 40
2.162790697674418
 40
2.162790707674418
 40
2.186046511627906
 40
2.186046511627906
 40
2.186046511627906
 40
2.186046521627906
 40
2.209302325581394
 40
2.209302325581394
 40
2.209302325581394
 40
2.209302335581395
 40
2.232558139534883
 40
2.232558139534883
 40
2.232558139534883
 40
3.232558139534883
 40
3.232558139534883
 40
3.232558139534883
 40
3.232558149534883
 40
3.255813953488372
 40
3.255813953488372
 40
3.255813953488372
 40
3.255813953488372
 10
27.0468
 20
7.7972
 30
0.0
 41
1.0
 10
27.0468
 20
7.7972
 30
0.0
 41
1.0
 10
26.9442
 20
7.7892
 30
0.0
 41
1.0
 10
26.8816
 20
7.760699999999999
 30
0.0
 41
1.0
 10
26.7875
 20
7.7595
 30
0.0
 41
1.0
 10
26.7875
 20
7.7595
 30
0.0
 41
1.0
 10
26.71
 20
7.7483
 30
0.0
 41
1.0
 10
26.6055
 20
7.7054
 30
0.0
 41
1.0
 10
26.5448
 20
7.718099999999998
 30
0.0
 41
1.0
 10
26.5448
 20
7.718099999999998
 30
0.0
 41
1.0
 10
26.4616
 20
7.672
 30
0.0
 41
1.0
 10
26.3325
 20
7.669699999999998
 30
0.0
 41
1.0
 10
26.2198
 20
7.681199999999998
 30
0.0
 41
1.0
 10
26.2198
 20
7.681199999999998
 30
0.0
 41
1.0
 10
26.1559
 20
7.6603
 30
0.0
 41
1.0
 10
26.0859
 20
7.678999999999998
 30
0.0
 41
1.0
 10
26.0087
 20
7.682199999999999
 30
0.0
 41
1.0
 10
25.93576666666667
 20
7.695966666666667
 30
0.0
 41
1.0
 10
25.86283333333334
 20
7.709733333333333
 30
0.0
 41
1.0
 10
25.78990000000001
 20
7.723499999999999
 30
0.0
 41
1.0
 10
25.7899
 20
7.723499999999998
 30
0.0
 41
1.0
 10
25.8243
 20
7.899799999999999
 30
0.0
 41
1.0
 10
25.7883
 20
8.090799999999997
 30
0.0
 41
1.0
 10
25.7843
 20
8.2742
 30
0.0
 41
1.0
 10
25.77406666666667
 20
8.466000000000001
 30
0.0
 41
1.0
 10
25.76383333333334
 20
8.657800000000001
 30
0.0
 41
1.0
 10
25.7536
 20
8.849600000000002
 30
0.0
 41
1.0
 10
25.7536
 20
8.8496
 30
0.0
 41
1.0
 10
25.908
 20
8.9577
 30
0.0
 41
1.0
 10
26.0489
 20
9.001899999999997
 30
0.0
 41
1.0
 10
26.1701
 20
9.0173
 30
0.0
 41
1.0
 10
26.1701
 20
9.0173
 30
0.0
 41
1.0
 10
26.2914
 20
9.1135
 30
0.0
 41
1.0
 10
26.46800000000001
 20
9.149399999999999
 30
0.0
 41
1.0
 10
26.6052
 20
9.169399999999999
 30
0.0
 41
1.0
 10
26.6052
 20
9.169399999999999
 30
0.0
 41
1.0
 10
26.7263
 20
9.1386
 30
0.0
 41
1.0
 10
26.7599
 20
9.109199999999999
 30
0.0
 41
1.0
 10
27.0895
 20
8.953799999999997
 30
0.0
 41
1.0
 10
27.0895
 20
8.953799999999997
 30
0.0
 41
1.0
 10
27.1299
 20
8.921499999999998
 30
0.0
 41
1.0
 10
27.1558
 20
8.892599999999998
 30
0.0
 41
1.0
 10
27.1788
 20
8.864699999999997
 30
0.0
 41
1.0
 10
27.1788
 20
8.864699999999997
 30
0.0
 41
1.0
 10
27.1788
 20
8.864699999999997
 30
0.0
 41
1.0
 10
27.1958
 20
8.8437
 30
0.0
 41
1.0
 10
27.1958
 20
8.8437
 30
0.0
 41
1.0
 10
27.2345
 20
8.522766666666667
 30
0.0
 41
1.0
 10
27.2732
 20
8.201833333333333
 30
0.0
 41
1.0
 10
27.3119
 20
7.880899999999999
 30
0.0
 41
1.0
 10
27.3119
 20
7.880899999999998
 30
0.0
 41
1.0
 10
27.2226
 20
7.855599999999999
 30
0.0
 41
1.0
 10
27.1358
 20
7.832399999999998
 30
0.0
 41
1.0
 10
27.0468
 20
7.7972
 30
0.0
 41
1.0
  0
SPLINE
  5
3AB
330
1F
100
AcDbEntity
  8
Layer 1
370
     9
100
AcDbSpline
210
0.0
220
0.0
230
1.0
 70
    13
 71
     3
 72
    52
 73
    48
 74
     0
 42
0.000000001
 43
0.0000000001
 40
0.0
 40
0.0
 40
0.0
 40
0.0
 40
1.0
 40
1.0
 40
1.0
 40
1.00000001
 40
1.021739130434782
 40
1.021739130434782
 40
1.021739130434782
 40
2.021739130434782
 40
2.021739130434782
 40
2.021739130434782
 40
3.021739130434782
 40
3.021739130434782
 40
3.021739130434782
 40
3.021739140434782
 40
3.043478260869565
 40
3.043478260869565
 40
3.043478260869565
 40
3.043478270869565
 40
3.065217391304348
 40
3.065217391304348
 40
3.065217391304348
 40
3.065217401304348
 40
3.08695652173913
 40
3.08695652173913
 40
3.08695652173913
 40
3.08695653173913
 40
3.108695652173913
 40
3.108695652173913
 40
3.108695652173913
 40
4.108695652173913
 40
4.108695652173913
 40
4.108695652173913
 40
4.108695662173913
 40
4.152173913043478
 40
4.152173913043478
 40
4.152173913043478
 40
4.152173923043478
 40
4.17391304347826
 40
4.17391304347826
 40
4.17391304347826
 40
5.17391304347826
 40
5.17391304347826
 40
5.17391304347826
 40
5.17391305347826
 40
5.195652173913043
 40
5.195652173913043
 40
5.195652173913043
 40
5.195652173913043
 10
27.41420000000001
 20
7.591499999999998
 30
0.0
 41
1.0
 10
27.40496666666667
 20
7.517999999999998
 30
0.0
 41
1.0
 10
27.39573333333334
 20
7.444499999999999
 30
0.0
 41
1.0
 10
27.3865
 20
7.371
 30
0.0
 41
1.0
 10
27.3865
 20
7.371
 30
0.0
 41
1.0
 10
27.3938
 20
7.351899999999998
 30
0.0
 41
1.0
 10
27.3478
 20
7.3535
 30
0.0
 41
1.0
 10
27.34300000000001
 20
7.338999999999998
 30
0.0
 41
1.0
 10
27.37126666666667
 20
7.085399999999999
 30
0.0
 41
1.0
 10
27.39953333333333
 20
6.831799999999998
 30
0.0
 41
1.0
 10
27.4278
 20
6.578199999999998
 30
0.0
 41
1.0
 10
27.38486666666667
 20
6.508066666666664
 30
0.0
 41
1.0
 10
27.34193333333334
 20
6.43793333333333
 30
0.0
 41
1.0
 10
27.29900000000001
 20
6.367799999999997
 30
0.0
 41
1.0
 10
27.299
 20
6.367799999999999
 30
0.0
 41
1.0
 10
27.1791
 20
6.307299999999998
 30
0.0
 41
1.0
 10
27.0195
 20
6.2838
 30
0.0
 41
1.0
 10
26.8669
 20
6.287
 30
0.0
 41
1.0
 10
26.8669
 20
6.287
 30
0.0
 41
1.0
 10
26.6941
 20
6.251699999999998
 30
0.0
 41
1.0
 10
26.4904
 20
6.2895
 30
0.0
 41
1.0
 10
26.2774
 20
6.345399999999998
 30
0.0
 41
1.0
 10
26.2774
 20
6.345399999999998
 30
0.0
 41
1.0
 10
26.2056
 20
6.3624
 30
0.0
 41
1.0
 10
26.1326
 20
6.387
 30
0.0
 41
1.0
 10
26.0651
 20
6.414299999999999
 30
0.0
 41
1.0
 10
26.0651
 20
6.414299999999999
 30
0.0
 41
1.0
 10
26.0565
 20
6.4183
 30
0.0
 41
1.0
 10
26.0475
 20
6.4226
 30
0.0
 41
1.0
 10
26.0384
 20
6.4267
 30
0.0
 41
1.0
 10
25.99053333333334
 20
6.685966666666666
 30
0.0
 41
1.0
 10
25.94266666666667
 20
6.945233333333333
 30
0.0
 41
1.0
 10
25.8948
 20
7.2045
 30
0.0
 41
1.0
 10
25.8948
 20
7.2045
 30
0.0
 41
1.0
 10
25.9201
 20
7.2609
 30
0.0
 41
1.0
 10
25.882
 20
7.311399999999999
 30
0.0
 41
1.0
 10
25.8753
 20
7.365099999999999
 30
0.0
 41
1.0
 10
25.8753
 20
7.365099999999999
 30
0.0
 41
1.0
 10
25.9493
 20
7.3752
 30
0.0
 41
1.0
 10
26.0316
 20
7.3794
 30
0.0
 41
1.0
 10
26.0843
 20
7.4095
 30
0.0
 41
1.0
 10
26.32966666666666
 20
7.425299999999999
 30
0.0
 41
1.0
 10
26.57503333333333
 20
7.441099999999999
 30
0.0
 41
1.0
 10
26.82039999999999
 20
7.4569
 30
0.0
 41
1.0
 10
26.8204
 20
7.4569
 30
0.0
 41
1.0
 10
26.9909
 20
7.5026
 30
0.0
 41
1.0
 10
27.2149
 20
7.5285
 30
0.0
 41
1.0
 10
27.4142
 20
7.591499999999999
 30
0.0
 41
1.0
  0
SPLINE
  5
3C4
330
1F
100
AcDbEntity
  8
Layer 1
370
     9
100
AcDbSpline
210
0.0
220
0.0
230
1.0
 70
    13
 71
     3
 72
    99
 73
    95
 74
     0
 42
0.000000001
 43
0.0000000001
 40
0.0
 40
0.0
 40
0.0
 40
0.0
 40
0.00000001
 40
0.0169491525423729
 40
0.0169491525423729
 40
0.0169491525423729
 40
0.0169491625423729
 40
0.0338983050847457
 40
0.0338983050847457
 40
0.0338983050847457
 40
0.0338983150847457
 40
0.0508474576271186
 40
0.0508474576271186
 40
0.0508474576271186
 40
0.0508474676271186
 40
0.0677966101694915
 40
0.0677966101694915
 40
0.0677966101694915
 40
0.0677966201694915
 40
0.0847457627118644
 40
0.0847457627118644
 40
0.0847457627118644
 40
0.0847457727118644
 40
0.1016949152542373
 40
0.1016949152542373
 40
0.1016949152542373
 40
0.1016949252542373
 40
0.1186440677966101
 40
0.1186440677966101
 40
0.1186440677966101
 40
0.1186440777966101
 40
0.135593220338983
 40
0.135593220338983
 40
0.135593220338983
 40
0.135593230338983
 40
0.152542372881356
 40
0.152542372881356
 40
0.152542372881356
 40
0.1525423828813559
 40
0.1694915254237287
 40
0.1694915254237287
 40
0.1694915254237287
 40
0.1694915354237287
 40
0.1864406779661016
 40
0.1864406779661016
 40
0.1864406779661016
 40
0.1864406879661017
 40
0.2033898305084746
 40
0.2033898305084746
 40
0.2033898305084746
 40
0.2033898405084746
 40
0.2203389830508474
 40
0.2203389830508474
 40
0.2203389830508474
 40
0.2203389930508476
 40
0.2372881355932204
 40
0.2372881355932204
 40
0.2372881355932204
 40
0.2372881455932203
 40
0.2542372881355931
 40
0.2542372881355931
 40
0.2542372881355931
 40
0.2542372981355933
 40
0.2711864406779663
 40
0.2711864406779663
 40
0.2711864406779663
 40
0.2711864506779662
 40
0.2881355932203387
 40
0.2881355932203387
 40
0.2881355932203387
 40
0.288135603220339
 40
0.305084745762712
 40
0.305084745762712
 40
0.305084745762712
 40
1.305084745762711
 40
1.305084745762711
 40
1.305084745762711
 40
1.305084755762712
 40
1.322033898305084
 40
1.322033898305084
 40
1.322033898305084
 40
2.322033898305084
 40
2.322033898305084
 40
2.322033898305084
 40
2.322033908305084
 40
2.338983050847457
 40
2.338983050847457
 40
2.338983050847457
 40
2.338983060847457
 40
2.35593220338983
 40
2.35593220338983
 40
2.35593220338983
 40
2.35593221338983
 40
2.372881355932203
 40
2.372881355932203
 40
2.372881355932203
 40
2.372881355932203
 10
25.5718
 20
6.9358
 30
0.0
 41
1.0
 10
25.5718
 20
6.9358
 30
0.0
 41
1.0
 10
25.5719
 20
6.910599999999998
 30
0.0
 41
1.0
 10
25.6001
 20
6.877399999999998
 30
0.0
 41
1.0
 10
25.5823
 20
6.856799999999998
 30
0.0
 41
1.0
 10
25.5823
 20
6.856799999999998
 30
0.0
 41
1.0
 10
25.6191
 20
6.8307
 30
0.0
 41
1.0
 10
25.6067
 20
6.790099999999998
 30
0.0
 41
1.0
 10
25.5927
 20
6.7534
 30
0.0
 41
1.0
 10
25.5927
 20
6.7534
 30
0.0
 41
1.0
 10
25.6101
 20
6.733399999999998
 30
0.0
 41
1.0
 10
25.594
 20
6.7103
 30
0.0
 41
1.0
 10
25.5958
 20
6.684599999999998
 30
0.0
 41
1.0
 10
25.5958
 20
6.684599999999998
 30
0.0
 41
1.0
 10
25.5993
 20
6.65
 30
0.0
 41
1.0
 10
25.6104
 20
6.610299999999998
 30
0.0
 41
1.0
 10
25.595
 20
6.5811
 30
0.0
 41
1.0
 10
25.595
 20
6.5811
 30
0.0
 41
1.0
 10
25.5968
 20
6.570599999999998
 30
0.0
 41
1.0
 10
25.5914
 20
6.558399999999998
 30
0.0
 41
1.0
 10
25.6066
 20
6.5509
 30
0.0
 41
1.0
 10
25.6066
 20
6.5509
 30
0.0
 41
1.0
 10
25.5963
 20
6.540199999999998
 30
0.0
 41
1.0
 10
25.5898
 20
6.5293
 30
0.0
 41
1.0
 10
25.5854
 20
6.518299999999999
 30
0.0
 41
1.0
 10
25.5854
 20
6.518299999999999
 30
0.0
 41
1.0
 10
25.462
 20
6.4583
 30
0.0
 41
1.0
 10
25.3298
 20
6.426499999999998
 30
0.0
 41
1.0
 10
25.2138
 20
6.4267
 30
0.0
 41
1.0
 10
25.2138
 20
6.4267
 30
0.0
 41
1.0
 10
25.1239
 20
6.4123
 30
0.0
 41
1.0
 10
25.0075
 20
6.426899999999998
 30
0.0
 41
1.0
 10
24.96
 20
6.407799999999999
 30
0.0
 41
1.0
 10
24.96
 20
6.407799999999999
 30
0.0
 41
1.0
 10
24.7473
 20
6.459299999999998
 30
0.0
 41
1.0
 10
24.5073
 20
6.5396
 30
0.0
 41
1.0
 10
24.2525
 20
6.652999999999998
 30
0.0
 41
1.0
 10
24.2525
 20
6.652999999999998
 30
0.0
 41
1.0
 10
24.2598
 20
6.694099999999998
 30
0.0
 41
1.0
 10
24.2463
 20
6.711899999999999
 30
0.0
 41
1.0
 10
24.1709
 20
7.120199999999998
 30
0.0
 41
1.0
 10
24.1709
 20
7.120199999999998
 30
0.0
 41
1.0
 10
24.1691
 20
7.158299999999998
 30
0.0
 41
1.0
 10
24.1564
 20
7.2018
 30
0.0
 41
1.0
 10
24.1766
 20
7.241799999999998
 30
0.0
 41
1.0
 10
24.1766
 20
7.241799999999998
 30
0.0
 41
1.0
 10
24.1615
 20
7.290799999999999
 30
0.0
 41
1.0
 10
24.1833
 20
7.3554
 30
0.0
 41
1.0
 10
24.1741
 20
7.413499999999999
 30
0.0
 41
1.0
 10
24.1741
 20
7.413499999999999
 30
0.0
 41
1.0
 10
24.1797
 20
7.422699999999998
 30
0.0
 41
1.0
 10
24.1764
 20
7.435399999999998
 30
0.0
 41
1.0
 10
24.1351
 20
7.7022
 30
0.0
 41
1.0
 10
24.1351
 20
7.7022
 30
0.0
 41
1.0
 10
24.1536
 20
7.7057
 30
0.0
 41
1.0
 10
24.1649
 20
7.714599999999999
 30
0.0
 41
1.0
 10
24.1798
 20
7.7194
 30
0.0
 41
1.0
 10
24.1798
 20
7.719400000000001
 30
0.0
 41
1.0
 10
24.559
 20
7.6001
 30
0.0
 41
1.0
 10
24.6614
 20
7.5925
 30
0.0
 41
1.0
 10
25.2984
 20
7.5018
 30
0.0
 41
1.0
 10
25.2984
 20
7.5018
 30
0.0
 41
1.0
 10
25.3106
 20
7.5502
 30
0.0
 41
1.0
 10
25.3591
 20
7.550399999999998
 30
0.0
 41
1.0
 10
25.3973
 20
7.567899999999998
 30
0.0
 41
1.0
 10
25.3973
 20
7.567899999999998
 30
0.0
 41
1.0
 10
25.458
 20
7.558699999999999
 30
0.0
 41
1.0
 10
25.4902
 20
7.5715
 30
0.0
 41
1.0
 10
25.5353
 20
7.540399999999999
 30
0.0
 41
1.0
 10
25.5353
 20
7.540399999999999
 30
0.0
 41
1.0
 10
25.5503
 20
7.5399
 30
0.0
 41
1.0
 10
25.5574
 20
7.5479
 30
0.0
 41
1.0
 10
25.5628
 20
7.5575
 30
0.0
 41
1.0
 10
25.5836
 20
7.5346
 30
0.0
 41
1.0
 10
25.6044
 20
7.5117
 30
0.0
 41
1.0
 10
25.62520000000001
 20
7.4888
 30
0.0
 41
1.0
 10
25.6252
 20
7.4888
 30
0.0
 41
1.0
 10
25.6209
 20
7.4767
 30
0.0
 41
1.0
 10
25.5955
 20
7.4686
 30
0.0
 41
1.0
 10
25.5757
 20
7.4596
 30
0.0
 41
1.0
 10
25.56940000000001
 20
7.384066666666664
 30
0.0
 41
1.0
 10
25.56310000000001
 20
7.308533333333331
 30
0.0
 41
1.0
 10
25.55680000000001
 20
7.232999999999997
 30
0.0
 41
1.0
 10
25.5568
 20
7.232999999999998
 30
0.0
 41
1.0
 10
25.5657
 20
7.2175
 30
0.0
 41
1.0
 10
25.5198
 20
7.213599999999998
 30
0.0
 41
1.0
 10
25.5162
 20
7.200899999999998
 30
0.0
 41
1.0
 10
25.5162
 20
7.200899999999998
 30
0.0
 41
1.0
 10
25.5579
 20
7.137699999999998
 30
0.0
 41
1.0
 10
25.5442
 20
7.077999999999998
 30
0.0
 41
1.0
 10
25.5795
 20
7.0216
 30
0.0
 41
1.0
 10
25.5795
 20
7.0216
 30
0.0
 41
1.0
 10
25.5675
 20
6.987099999999998
 30
0.0
 41
1.0
 10
25.586
 20
6.967399999999998
 30
0.0
 41
1.0
 10
25.5718
 20
6.9358
 30
0.0
 41
1.0
  0
SPLINE
  5
40B
330
1F
100
AcDbEntity
  8
Layer 1
370
     9
100
AcDbSpline
210
0.0
220
0.0
230
1.0
 70
    13
 71
     3
 72
    52
 73
    48
 74
     0
 42
0.000000001
 43
0.0000000001
 40
0.0
 40
0.0
 40
0.0
 40
0.0
 40
0.00000001
 40
0.0232558139534884
 40
0.0232558139534884
 40
0.0232558139534884
 40
1.023255813953488
 40
1.023255813953488
 40
1.023255813953488
 40
1.023255823953488
 40
1.046511627906976
 40
1.046511627906976
 40
1.046511627906976
 40
2.046511627906976
 40
2.046511627906976
 40
2.046511627906976
 40
2.046511637906976
 40
2.069767441860465
 40
2.069767441860465
 40
2.069767441860465
 40
2.069767451860465
 40
2.093023255813953
 40
2.093023255813953
 40
2.093023255813953
 40
2.093023265813953
 40
2.116279069767442
 40
2.116279069767442
 40
2.116279069767442
 40
3.116279069767442
 40
3.116279069767442
 40
3.116279069767442
 40
3.116279079767442
 40
3.13953488372093
 40
3.13953488372093
 40
3.13953488372093
 40
4.13953488372093
 40
4.13953488372093
 40
4.13953488372093
 40
4.13953489372093
 40
4.162790697674418
 40
4.162790697674418
 40
4.162790697674418
 40
5.162790697674418
 40
5.162790697674418
 40
5.162790697674418
 40
5.162790707674418
 40
5.186046511627907
 40
5.186046511627907
 40
5.186046511627907
 40
5.186046511627907
 10
25.1004
 20
7.776399999999998
 30
0.0
 41
1.0
 10
25.1004
 20
7.776399999999998
 30
0.0
 41
1.0
 10
25.0075
 20
7.7746
 30
0.0
 41
1.0
 10
24.9608
 20
7.7834
 30
0.0
 41
1.0
 10
24.8827
 20
7.8288
 30
0.0
 41
1.0
 10
24.65293333333334
 20
7.889599999999999
 30
0.0
 41
1.0
 10
24.42316666666667
 20
7.9504
 30
0.0
 41
1.0
 10
24.1934
 20
8.0112
 30
0.0
 41
1.0
 10
24.1934
 20
8.0112
 30
0.0
 41
1.0
 10
24.1857
 20
8.110699999999999
 30
0.0
 41
1.0
 10
24.2135
 20
8.237199999999999
 30
0.0
 41
1.0
 10
24.2224
 20
8.356799999999998
 30
0.0
 41
1.0
 10
24.25823333333333
 20
8.634866666666665
 30
0.0
 41
1.0
 10
24.29406666666666
 20
8.912933333333333
 30
0.0
 41
1.0
 10
24.3299
 20
9.191
 30
0.0
 41
1.0
 10
24.3299
 20
9.191
 30
0.0
 41
1.0
 10
24.5825
 20
9.250199999999999
 30
0.0
 41
1.0
 10
24.78
 20
9.1605
 30
0.0
 41
1.0
 10
25.0502
 20
9.009299999999999
 30
0.0
 41
1.0
 10
25.0502
 20
9.009299999999999
 30
0.0
 41
1.0
 10
25.1466
 20
8.962199999999997
 30
0.0
 41
1.0
 10
25.2236
 20
8.9366
 30
0.0
 41
1.0
 10
25.2998
 20
8.9023
 30
0.0
 41
1.0
 10
25.2998
 20
8.9023
 30
0.0
 41
1.0
 10
25.2998
 20
8.9023
 30
0.0
 41
1.0
 10
25.4173
 20
8.8513
 30
0.0
 41
1.0
 10
25.4173
 20
8.8513
 30
0.0
 41
1.0
 10
25.46723333333334
 20
8.837433333333329
 30
0.0
 41
1.0
 10
25.51716666666667
 20
8.823566666666662
 30
0.0
 41
1.0
 10
25.56710000000001
 20
8.809699999999995
 30
0.0
 41
1.0
 10
25.5671
 20
8.809699999999997
 30
0.0
 41
1.0
 10
25.5665
 20
8.7856
 30
0.0
 41
1.0
 10
25.5661
 20
8.7611
 30
0.0
 41
1.0
 10
25.5636
 20
8.7383
 30
0.0
 41
1.0
 10
25.5501
 20
8.525966666666661
 30
0.0
 41
1.0
 10
25.5366
 20
8.31363333333333
 30
0.0
 41
1.0
 10
25.5231
 20
8.101299999999998
 30
0.0
 41
1.0
 10
25.5231
 20
8.1013
 30
0.0
 41
1.0
 10
25.5431
 20
7.961899999999999
 30
0.0
 41
1.0
 10
25.5401
 20
7.8906
 30
0.0
 41
1.0
 10
25.5144
 20
7.759699999999998
 30
0.0
 41
1.0
 10
25.4468
 20
7.745099999999997
 30
0.0
 41
1.0
 10
25.3792
 20
7.730499999999998
 30
0.0
 41
1.0
 10
25.3116
 20
7.715899999999999
 30
0.0
 41
1.0
 10
25.3116
 20
7.7159
 30
0.0
 41
1.0
 10
25.2341
 20
7.7457
 30
0.0
 41
1.0
 10
25.1876
 20
7.7389
 30
0.0
 41
1.0
 10
25.1004
 20
7.776399999999998
 30
0.0
 41
1.0
  0
SPLINE
  5
449
330
1F
100
AcDbEntity
  8
Layer 1
370
     9
100
AcDbSpline
210
0.0
220
0.0
230
1.0
 70
    13
 71
     3
 72
    53
 73
    49
 74
     0
 42
0.000000001
 43
0.0000000001
 40
0.0
 40
0.0
 40
0.0
 40
0.0
 40
1.0
 40
1.0
 40
1.0
 40
1.000000009999999
 40
1.016666666666666
 40
1.016666666666666
 40
1.016666666666666
 40
2.016666666666666
 40
2.016666666666666
 40
2.016666666666666
 40
2.016666676666666
 40
2.033333333333333
 40
2.033333333333333
 40
2.033333333333333
 40
3.033333333333333
 40
3.033333333333333
 40
3.033333333333333
 40
3.033333343333333
 40
3.049999999999999
 40
3.049999999999999
 40
3.049999999999999
 40
3.050000009999999
 40
3.066666666666666
 40
3.066666666666666
 40
3.066666666666666
 40
3.066666676666666
 40
3.083333333333333
 40
3.083333333333333
 40
3.083333333333333
 40
3.083333343333332
 40
3.099999999999999
 40
3.099999999999999
 40
3.099999999999999
 40
4.099999999999999
 40
4.099999999999999
 40
4.099999999999999
 40
4.100000009999999
 40
4.133333333333332
 40
4.133333333333332
 40
4.133333333333332
 40
4.133333343333332
 40
4.149999999999999
 40
4.149999999999999
 40
4.149999999999999
 40
4.150000009999999
 40
4.166666666666666
 40
4.166666666666666
 40
4.166666666666666
 40
4.166666666666666
 10
24.13520000000001
 20
9.0737
 30
0.0
 41
1.0
 10
24.05140000000001
 20
8.749500000000001
 30
0.0
 41
1.0
 10
23.96760000000001
 20
8.425300000000001
 30
0.0
 41
1.0
 10
23.88380000000001
 20
8.101100000000002
 30
0.0
 41
1.0
 10
23.8838
 20
8.1011
 30
0.0
 41
1.0
 10
23.8517
 20
8.131
 30
0.0
 41
1.0
 10
23.809
 20
8.1532
 30
0.0
 41
1.0
 10
23.7697
 20
8.175
 30
0.0
 41
1.0
 10
23.4694
 20
8.268933333333334
 30
0.0
 41
1.0
 10
23.1691
 20
8.362866666666667
 30
0.0
 41
1.0
 10
22.8688
 20
8.456799999999999
 30
0.0
 41
1.0
 10
22.8688
 20
8.456799999999999
 30
0.0
 41
1.0
 10
22.8554
 20
8.5502
 30
0.0
 41
1.0
 10
22.8876
 20
8.6684
 30
0.0
 41
1.0
 10
22.8892
 20
8.7789
 30
0.0
 41
1.0
 10
22.92290000000001
 20
8.991900000000004
 30
0.0
 41
1.0
 10
22.95660000000001
 20
9.204900000000003
 30
0.0
 41
1.0
 10
22.99030000000001
 20
9.417900000000003
 30
0.0
 41
1.0
 10
22.9903
 20
9.417899999999999
 30
0.0
 41
1.0
 10
23.0359
 20
9.412399999999999
 30
0.0
 41
1.0
 10
23.0869
 20
9.402799999999999
 30
0.0
 41
1.0
 10
23.1352
 20
9.39
 30
0.0
 41
1.0
 10
23.1352
 20
9.39
 30
0.0
 41
1.0
 10
23.2505
 20
9.3604
 30
0.0
 41
1.0
 10
23.2284
 20
9.413999999999999
 30
0.0
 41
1.0
 10
23.3287
 20
9.3862
 30
0.0
 41
1.0
 10
23.3287
 20
9.3862
 30
0.0
 41
1.0
 10
23.4777
 20
9.330299999999999
 30
0.0
 41
1.0
 10
23.5892
 20
9.275199999999999
 30
0.0
 41
1.0
 10
23.7045
 20
9.214299999999999
 30
0.0
 41
1.0
 10
23.7045
 20
9.214299999999999
 30
0.0
 41
1.0
 10
23.7601
 20
9.179399999999999
 30
0.0
 41
1.0
 10
23.8168
 20
9.144199999999999
 30
0.0
 41
1.0
 10
23.8784
 20
9.104599999999999
 30
0.0
 41
1.0
 10
23.97203333333334
 20
9.117833333333329
 30
0.0
 41
1.0
 10
24.06566666666667
 20
9.131066666666663
 30
0.0
 41
1.0
 10
24.15930000000001
 20
9.144299999999997
 30
0.0
 41
1.0
 10
24.1593
 20
9.144299999999999
 30
0.0
 41
1.0
 10
24.1814
 20
9.1576
 30
0.0
 41
1.0
 10
24.206
 20
9.1623
 30
0.0
 41
1.0
 10
24.2312
 20
9.166999999999999
 30
0.0
 41
1.0
 10
24.2312
 20
9.166999999999999
 30
0.0
 41
1.0
 10
24.2193
 20
9.143399999999999
 30
0.0
 41
1.0
 10
24.2064
 20
9.125899999999999
 30
0.0
 41
1.0
 10
24.2015
 20
9.1019
 30
0.0
 41
1.0
 10
24.2015
 20
9.1019
 30
0.0
 41
1.0
 10
24.1901
 20
9.0776
 30
0.0
 41
1.0
 10
24.1595
 20
9.0792
 30
0.0
 41
1.0
 10
24.1352
 20
9.0737
 30
0.0
 41
1.0
  0
SPLINE
  5
462
330
1F
100
AcDbEntity
  8
Layer 1
370
     9
100
AcDbSpline
210
0.0
220
0.0
230
1.0
 70
     8
 71
     3
 72
     9
 73
     5
 74
     0
 42
0.000000001
 43
0.0000000001
 40
0.2682926829268293
 40
0.2682926829268293
 40
0.2682926829268293
 40
0.2682926829268293
 40
0.2682926929268293
 40
0.2926829268292683
 40
0.2926829268292683
 40
0.2926829268292683
 40
0.2926829268292683
 10
22.5872
 20
8.974899999999998
 30
0.0
 10
22.5872
 20
8.974899999999998
 30
0.0
 10
22.5989
 20
8.853099999999997
 30
0.0
 10
22.5713
 20
8.758599999999999
 30
0.0
 10
22.5844
 20
8.6536
 30
0.0
  0
SPLINE
  5
49E
330
1F
100
AcDbEntity
  8
Layer 1
370
     9
100
AcDbSpline
210
0.0
220
0.0
230
1.0
 70
    13
 71
     3
 72
    33
 73
    29
 74
     0
 42
0.000000001
 43
0.0000000001
 40
0.0
 40
0.0
 40
0.0
 40
0.0
 40
1.0
 40
1.0
 40
1.0
 40
1.000000009999999
 40
1.027027027027026
 40
1.027027027027026
 40
1.027027027027026
 40
2.027027027027027
 40
2.027027027027027
 40
2.027027027027027
 40
2.027027037027027
 40
2.081081081081081
 40
2.081081081081081
 40
2.081081081081081
 40
3.081081081081081
 40
3.081081081081081
 40
3.081081081081081
 40
3.081081091081081
 40
3.108108108108107
 40
3.108108108108107
 40
3.108108108108107
 40
4.108108108108107
 40
4.108108108108107
 40
4.108108108108107
 40
4.108108118108107
 40
4.135135135135135
 40
4.135135135135135
 40
4.135135135135135
 40
4.135135135135135
 10
22.4461
 20
7.5029
 30
0.0
 41
1.0
 10
22.4877
 20
7.338599999999999
 30
0.0
 41
1.0
 10
22.5293
 20
7.174299999999998
 30
0.0
 41
1.0
 10
22.57089999999999
 20
7.009999999999998
 30
0.0
 41
1.0
 10
22.5709
 20
7.009999999999998
 30
0.0
 41
1.0
 10
22.3926
 20
7.0235
 30
0.0
 41
1.0
 10
22.2721
 20
7.042999999999998
 30
0.0
 41
1.0
 10
22.1285
 20
7.1154
 30
0.0
 41
1.0
 10
22.01449999999999
 20
7.141766666666666
 30
0.0
 41
1.0
 10
21.90049999999999
 20
7.168133333333332
 30
0.0
 41
1.0
 10
21.78649999999999
 20
7.194499999999998
 30
0.0
 41
1.0
 10
21.7865
 20
7.194499999999998
 30
0.0
 41
1.0
 10
21.6308
 20
7.3973
 30
0.0
 41
1.0
 10
21.5693
 20
7.781299999999998
 30
0.0
 41
1.0
 10
21.8594
 20
8.509399999999999
 30
0.0
 41
1.0
 10
22.1006
 20
8.455999999999997
 30
0.0
 41
1.0
 10
22.3418
 20
8.402599999999997
 30
0.0
 41
1.0
 10
22.583
 20
8.349199999999997
 30
0.0
 41
1.0
 10
22.583
 20
8.349199999999997
 30
0.0
 41
1.0
 10
22.5924
 20
8.336
 30
0.0
 41
1.0
 10
22.6073
 20
8.3152
 30
0.0
 41
1.0
 10
22.6278
 20
8.286599999999998
 30
0.0
 41
1.0
 10
22.56390000000001
 20
8.068766666666666
 30
0.0
 41
1.0
 10
22.50000000000001
 20
7.850933333333332
 30
0.0
 41
1.0
 10
22.43610000000001
 20
7.633099999999998
 30
0.0
 41
1.0
 10
22.4361
 20
7.633099999999998
 30
0.0
 41
1.0
 10
22.4703
 20
7.598399999999998
 30
0.0
 41
1.0
 10
22.4604
 20
7.549299999999998
 30
0.0
 41
1.0
 10
22.4461
 20
7.5029
 30
0.0
 41
1.0
  0
SPLINE
  5
4D5
330
1F
100
AcDbEntity
  8
Layer 1
370
     9
100
AcDbSpline
210
0.0
220
0.0
230
1.0
 70
    13
 71
     3
 72
    50
 73
    46
 74
     0
 42
0.000000001
 43
0.0000000001
 40
0.0
 40
0.0
 40
0.0
 40
0.0
 40
1.0
 40
1.0
 40
1.0
 40
1.000000009999999
 40
1.015625
 40
1.015625
 40
1.015625
 40
2.015625
 40
2.015625
 40
2.015625
 40
3.015625
 40
3.015625
 40
3.015625
 40
3.015625009999999
 40
3.03125
 40
3.03125
 40
3.03125
 40
4.03125
 40
4.03125
 40
4.03125
 40
4.031250009999999
 40
4.046875
 40
4.046875
 40
4.046875
 40
5.046875
 40
5.046875
 40
5.046875
 40
5.046875009999999
 40
5.0625
 40
5.0625
 40
5.0625
 40
6.0625
 40
6.0625
 40
6.0625
 40
6.062500009999999
 40
6.078125
 40
6.078125
 40
6.078125
 40
7.078125
 40
7.078125
 40
7.078125
 40
7.078125009999999
 40
7.09375
 40
7.09375
 40
7.09375
 40
7.09375
 10
23.80180000000001
 20
6.679400000000001
 30
0.0
 41
1.0
 10
23.64023333333333
 20
6.6753
 30
0.0
 41
1.0
 10
23.47866666666666
 20
6.671199999999998
 30
0.0
 41
1.0
 10
23.3171
 20
6.667099999999997
 30
0.0
 41
1.0
 10
23.3171
 20
6.667099999999998
 30
0.0
 41
1.0
 10
23.1891
 20
6.7087
 30
0.0
 41
1.0
 10
23.1926
 20
6.761
 30
0.0
 41
1.0
 10
23.1034
 20
6.8193
 30
0.0
 41
1.0
 10
23.00156666666667
 20
6.886466666666666
 30
0.0
 41
1.0
 10
22.89973333333334
 20
6.953633333333333
 30
0.0
 41
1.0
 10
22.7979
 20
7.0208
 30
0.0
 41
1.0
 10
22.79386666666666
 20
7.411733333333332
 30
0.0
 41
1.0
 10
22.78983333333333
 20
7.802666666666665
 30
0.0
 41
1.0
 10
22.7858
 20
8.193599999999998
 30
0.0
 41
1.0
 10
22.7858
 20
8.193599999999998
 30
0.0
 41
1.0
 10
22.8227
 20
8.182
 30
0.0
 41
1.0
 10
22.8597
 20
8.161799999999999
 30
0.0
 41
1.0
 10
22.8943
 20
8.14
 30
0.0
 41
1.0
 10
23.19023333333333
 20
8.096133333333336
 30
0.0
 41
1.0
 10
23.48616666666666
 20
8.052266666666668
 30
0.0
 41
1.0
 10
23.7821
 20
8.008399999999999
 30
0.0
 41
1.0
 10
23.7821
 20
8.008399999999998
 30
0.0
 41
1.0
 10
23.8299
 20
7.994699999999999
 30
0.0
 41
1.0
 10
23.8582
 20
8.004599999999998
 30
0.0
 41
1.0
 10
23.8933
 20
7.977899999999999
 30
0.0
 41
1.0
 10
23.93796666666666
 20
7.91083333333333
 30
0.0
 41
1.0
 10
23.98263333333333
 20
7.843766666666664
 30
0.0
 41
1.0
 10
24.0273
 20
7.776699999999998
 30
0.0
 41
1.0
 10
24.0273
 20
7.776699999999999
 30
0.0
 41
1.0
 10
24.043
 20
7.772599999999998
 30
0.0
 41
1.0
 10
24.0581
 20
7.768099999999998
 30
0.0
 41
1.0
 10
24.0712
 20
7.762599999999999
 30
0.0
 41
1.0
 10
23.99980000000001
 20
7.681799999999999
 30
0.0
 41
1.0
 10
23.92840000000001
 20
7.600999999999999
 30
0.0
 41
1.0
 10
23.85700000000001
 20
7.520199999999999
 30
0.0
 41
1.0
 10
23.857
 20
7.520199999999999
 30
0.0
 41
1.0
 10
23.8801
 20
7.4408
 30
0.0
 41
1.0
 10
23.8544
 20
7.3817
 30
0.0
 41
1.0
 10
23.8874
 20
7.316799999999998
 30
0.0
 41
1.0
 10
23.90856666666667
 20
7.126666666666666
 30
0.0
 41
1.0
 10
23.92973333333333
 20
6.936533333333334
 30
0.0
 41
1.0
 10
23.9509
 20
6.746400000000001
 30
0.0
 41
1.0
 10
23.9509
 20
6.7464
 30
0.0
 41
1.0
 10
23.9011
 20
6.7259
 30
0.0
 41
1.0
 10
23.8523
 20
6.692999999999998
 30
0.0
 41
1.0
 10
23.8018
 20
6.6794
 30
0.0
 41
1.0
  0
SPLINE
  5
556
330
1F
100
AcDbEntity
  8
Layer 1
370
     9
100
AcDbSpline
210
0.0
220
0.0
230
1.0
 70
    12
 71
     3
 72
    58
 73
    54
 74
     0
 42
0.000000001
 43
0.0000000001
 40
0.0
 40
0.0
 40
0.0
 40
0.0
 40
1.0
 40
1.0
 40
1.0
 40
1.000000009999999
 40
1.001589825119236
 40
1.001589825119236
 40
1.001589825119236
 40
1.001589835119236
 40
1.003179650238473
 40
1.003179650238473
 40
1.003179650238473
 40
1.003179660238473
 40
1.00476947535771
 40
1.00476947535771
 40
1.00476947535771
 40
1.00476948535771
 40
1.006359300476947
 40
1.006359300476947
 40
1.006359300476947
 40
1.006359310476947
 40
1.007949125596184
 40
1.007949125596184
 40
1.007949125596184
 40
2.007949125596184
 40
2.007949125596184
 40
2.007949125596184
 40
2.007949135596184
 40
2.009538950715421
 40
2.009538950715421
 40
2.009538950715421
 40
2.009538960715421
 40
2.011128775834658
 40
2.011128775834658
 40
2.011128775834658
 40
2.011128785834658
 40
2.012718600953895
 40
2.012718600953895
 40
2.012718600953895
 40
2.012718610953895
 40
2.014308426073132
 40
2.014308426073132
 40
2.014308426073132
 40
2.014308436073132
 40
2.015898251192369
 40
2.015898251192369
 40
2.015898251192369
 40
3.015898251192369
 40
3.015898251192369
 40
3.015898251192369
 40
3.015898261192369
 40
3.017488076311606
 40
3.017488076311606
 40
3.017488076311606
 40
3.017488076311606
 10
33.02322042292372
 20
11.28819446226591
 30
0.0
 41
1.0
 10
33.11718028194915
 20
11.08829630817727
 30
0.0
 41
1.0
 10
33.21114014097458
 20
10.88839815408863
 30
0.0
 41
1.0
 10
33.30510000000001
 20
10.68849999999999
 30
0.0
 41
1.0
 10
33.3051
 20
10.6885
 30
0.0
 41
1.0
 10
33.4061
 20
10.5977
 30
0.0
 41
1.0
 10
33.4285
 20
10.4938
 30
0.0
 41
1.0
 10
33.4997
 20
10.4033
 30
0.0
 41
1.0
 10
33.4997
 20
10.4033
 30
0.0
 41
1.0
 10
33.5005
 20
10.3426
 30
0.0
 41
1.0
 10
33.5357
 20
10.3099
 30
0.0
 41
1.0
 10
33.5246
 20
10.2566
 30
0.0
 41
1.0
 10
33.5246
 20
10.2566
 30
0.0
 41
1.0
 10
33.5335
 20
10.2145
 30
0.0
 41
1.0
 10
33.56
 20
10.1587
 30
0.0
 41
1.0
 10
33.54010000000001
 20
10.1286
 30
0.0
 41
1.0
 10
33.54010000000001
 20
10.1286
 30
0.0
 41
1.0
 10
33.57330000000001
 20
10.0828
 30
0.0
 41
1.0
 10
33.5505
 20
10.0149
 30
0.0
 41
1.0
 10
33.5133
 20
9.9733
 30
0.0
 41
1.0
 10
33.5133
 20
9.9733
 30
0.0
 41
1.0
 10
33.5205
 20
9.935499999999999
 30
0.0
 41
1.0
 10
33.4773
 20
9.917699999999999
 30
0.0
 41
1.0
 10
33.46
 20
9.8831
 30
0.0
 41
1.0
 10
33.24936666666668
 20
9.711366666666664
 30
0.0
 41
1.0
 10
33.03873333333334
 20
9.53963333333333
 30
0.0
 41
1.0
 10
32.82810000000001
 20
9.367899999999997
 30
0.0
 41
1.0
 10
32.8281
 20
9.3679
 30
0.0
 41
1.0
 10
32.7814
 20
9.347899999999999
 30
0.0
 41
1.0
 10
32.7595
 20
9.3252
 30
0.0
 41
1.0
 10
32.7204
 20
9.3222
 30
0.0
 41
1.0
 10
32.7204
 20
9.3222
 30
0.0
 41
1.0
 10
32.768
 20
9.399399999999999
 30
0.0
 41
1.0
 10
32.7968
 20
9.493199999999999
 30
0.0
 41
1.0
 10
32.8313
 20
9.5736
 30
0.0
 41
1.0
 10
32.8313
 20
9.5736
 30
0.0
 41
1.0
 10
32.8409
 20
9.716499999999999
 30
0.0
 41
1.0
 10
32.843
 20
9.889599999999999
 30
0.0
 41
1.0
 10
32.7966
 20
10.0363
 30
0.0
 41
1.0
 10
32.7966
 20
10.0363
 30
0.0
 41
1.0
 10
32.7948
 20
10.0622
 30
0.0
 41
1.0
 10
32.7834
 20
10.0944
 30
0.0
 41
1.0
 10
32.7914
 20
10.114
 30
0.0
 41
1.0
 10
32.7914
 20
10.114
 30
0.0
 41
1.0
 10
32.7056
 20
10.2258
 30
0.0
 41
1.0
 10
32.6637
 20
10.3661
 30
0.0
 41
1.0
 10
32.6566
 20
10.4869
 30
0.0
 41
1.0
 10
32.59043333333334
 20
10.57306666666667
 30
0.0
 41
1.0
 10
32.52426666666668
 20
10.65923333333333
 30
0.0
 41
1.0
 10
32.45810000000001
 20
10.7454
 30
0.0
 41
1.0
 10
32.4581
 20
10.7454
 30
0.0
 41
1.0
 10
32.4054
 20
10.784
 30
0.0
 41
1.0
 10
32.3869
 20
10.8551
 30
0.0
 41
1.0
 10
32.3472
 20
10.9039
 30
0.0
 41
1.0
  0
SPLINE
  5
55C
330
1F
100
AcDbEntity
  8
Layer 1
370
     9
100
AcDbSpline
210
0.0
220
0.0
230
1.0
 70
    12
 71
     3
 72
    16
 73
    12
 74
     0
 42
0.000000001
 43
0.0000000001
 40
0.0
 40
0.0
 40
0.0
 40
0.0
 40
0.00000001
 40
0.0015898251192369
 40
0.0015898251192369
 40
0.0015898251192369
 40
1.001589825119236
 40
1.001589825119236
 40
1.001589825119236
 40
1.001589835119236
 40
1.003179650238473
 40
1.003179650238473
 40
1.003179650238473
 40
1.003179650238473
 10
32.3432
 20
10.9079
 30
0.0
 41
1.0
 10
32.3432
 20
10.9079
 30
0.0
 41
1.0
 10
32.3892
 20
10.9775
 30
0.0
 41
1.0
 10
32.4462
 20
11.0808
 30
0.0
 41
1.0
 10
32.5152
 20
11.1468
 30
0.0
 41
1.0
 10
32.67459999999999
 20
11.23016666666666
 30
0.0
 41
1.0
 10
32.83399999999999
 20
11.31353333333333
 30
0.0
 41
1.0
 10
32.99339999999999
 20
11.3969
 30
0.0
 41
1.0
 10
32.9934
 20
11.3969
 30
0.0
 41
1.0
 10
32.9535
 20
11.3504
 30
0.0
 41
1.0
 10
33.0201
 20
11.321
 30
0.0
 41
1.0
 10
33.0244
 20
11.2821
 30
0.0
 41
1.0
  0
SPLINE
  5
664
330
1F
100
AcDbEntity
  8
Layer 1
370
     9
100
AcDbSpline
210
0.0
220
0.0
230
1.0
 70
     9
 71
     3
 72
    17
 73
    13
 74
     0
 42
0.000000001
 43
0.0000000001
 40
0.0
 40
0.0
 40
0.0
 40
0.0
 40
0.0000000100000001
 40
0.0015898251192369
 40
0.0015898251192369
 40
0.0015898251192369
 40
0.001589835119237
 40
0.0031796502384738
 40
0.0031796502384738
 40
0.0031796502384738
 40
0.0031796602384737
 40
0.0047694753577106
 40
0.0047694753577106
 40
0.0047694753577106
 40
0.0047694753577106
 10
25.6619
 20
6.0986
 30
0.0
 10
25.6619
 20
6.0986
 30
0.0
 10
25.6619
 20
6.0986
 30
0.0
 10
25.6671
 20
6.096899999999998
 30
0.0
 10
25.6671
 20
6.096899999999998
 30
0.0
 10
25.6671
 20
6.096899999999998
 30
0.0
 10
25.666
 20
6.096499999999998
 30
0.0
 10
25.6651
 20
6.096199999999998
 30
0.0
 10
25.664
 20
6.096099999999998
 30
0.0
 10
25.664
 20
6.096099999999998
 30
0.0
 10
25.6633
 20
6.096899999999998
 30
0.0
 10
25.6625
 20
6.0978
 30
0.0
 10
25.6619
 20
6.0986
 30
0.0
  0
SPLINE
  5
6A6
330
1F
100
AcDbEntity
  8
Layer 1
370
     9
100
AcDbSpline
210
0.0
220
0.0
230
1.0
 70
    13
 71
     3
 72
    72
 73
    68
 74
     0
 42
0.000000001
 43
0.0000000001
 40
0.0
 40
0.0
 40
0.0
 40
0.0
 40
0.0000000100000002
 40
0.0015898251192369
 40
0.0015898251192369
 40
0.0015898251192369
 40
0.001589835119237
 40
0.0031796502384738
 40
0.0031796502384738
 40
0.0031796502384738
 40
0.0031796602384738
 40
0.0047694753577108
 40
0.0047694753577108
 40
0.0047694753577108
 40
1.00476947535771
 40
1.00476947535771
 40
1.00476947535771
 40
1.00476948535771
 40
1.006359300476947
 40
1.006359300476947
 40
1.006359300476947
 40
2.006359300476947
 40
2.006359300476947
 40
2.006359300476947
 40
2.006359310476947
 40
2.007949125596184
 40
2.007949125596184
 40
2.007949125596184
 40
2.007949135596184
 40
2.009538950715421
 40
2.009538950715421
 40
2.009538950715421
 40
2.009538960715421
 40
2.011128775834658
 40
2.011128775834658
 40
2.011128775834658
 40
2.011128785834658
 40
2.012718600953895
 40
2.012718600953895
 40
2.012718600953895
 40
2.012718610953895
 40
2.014308426073132
 40
2.014308426073132
 40
2.014308426073132
 40
2.014308436073132
 40
2.015898251192369
 40
2.015898251192369
 40
2.015898251192369
 40
2.01589826119237
 40
2.017488076311606
 40
2.017488076311606
 40
2.017488076311606
 40
3.017488076311606
 40
3.017488076311606
 40
3.017488076311606
 40
3.017488086311606
 40
3.019077901430843
 40
3.019077901430843
 40
3.019077901430843
 40
4.019077901430843
 40
4.019077901430843
 40
4.019077901430843
 40
5.019077901430843
 40
5.019077901430843
 40
5.019077901430843
 40
5.019077911430844
 40
5.02066772655008
 40
5.02066772655008
 40
5.02066772655008
 40
5.02066772655008
 10
33.0878
 20
7.779899999999998
 30
0.0
 41
1.0
 10
33.0878
 20
7.779899999999998
 30
0.0
 41
1.0
 10
33.0841
 20
7.7835
 30
0.0
 41
1.0
 10
33.0814
 20
7.787499999999998
 30
0.0
 41
1.0
 10
33.0838
 20
7.793199999999998
 30
0.0
 41
1.0
 10
33.0838
 20
7.793199999999998
 30
0.0
 41
1.0
 10
33.119
 20
7.8399
 30
0.0
 41
1.0
 10
33.1168
 20
7.8718
 30
0.0
 41
1.0
 10
33.1517
 20
7.9263
 30
0.0
 41
1.0
 10
33.1517
 20
7.9263
 30
0.0
 41
1.0
 10
33.14970000000001
 20
7.989799999999998
 30
0.0
 41
1.0
 10
33.1597
 20
8.0187
 30
0.0
 41
1.0
 10
33.1966
 20
8.069399999999998
 30
0.0
 41
1.0
 10
33.2128
 20
8.197766666666668
 30
0.0
 41
1.0
 10
33.229
 20
8.326133333333334
 30
0.0
 41
1.0
 10
33.2452
 20
8.454500000000001
 30
0.0
 41
1.0
 10
33.2452
 20
8.454499999999999
 30
0.0
 41
1.0
 10
33.2571
 20
8.5083
 30
0.0
 41
1.0
 10
33.2599
 20
8.572499999999998
 30
0.0
 41
1.0
 10
33.2934
 20
8.6234
 30
0.0
 41
1.0
 10
33.29803333333333
 20
8.850233333333331
 30
0.0
 41
1.0
 10
33.30266666666666
 20
9.077066666666665
 30
0.0
 41
1.0
 10
33.30729999999999
 20
9.303899999999998
 30
0.0
 41
1.0
 10
33.3073
 20
9.3039
 30
0.0
 41
1.0
 10
33.3261
 20
9.3152
 30
0.0
 41
1.0
 10
33.3335
 20
9.334099999999999
 30
0.0
 41
1.0
 10
33.3472
 20
9.348699999999999
 30
0.0
 41
1.0
 10
33.3472
 20
9.348699999999999
 30
0.0
 41
1.0
 10
33.3259
 20
9.3816
 30
0.0
 41
1.0
 10
33.3372
 20
9.4168
 30
0.0
 41
1.0
 10
33.3361
 20
9.450599999999999
 30
0.0
 41
1.0
 10
33.3361
 20
9.450599999999999
 30
0.0
 41
1.0
 10
33.3515
 20
9.4549
 30
0.0
 41
1.0
 10
33.3675
 20
9.459199999999999
 30
0.0
 41
1.0
 10
33.3864
 20
9.4632
 30
0.0
 41
1.0
 10
33.3864
 20
9.4632
 30
0.0
 41
1.0
 10
33.4327
 20
9.484199999999999
 30
0.0
 41
1.0
 10
33.4468
 20
9.523699999999999
 30
0.0
 41
1.0
 10
33.4983
 20
9.5545
 30
0.0
 41
1.0
 10
33.4983
 20
9.5545
 30
0.0
 41
1.0
 10
33.5301
 20
9.5667
 30
0.0
 41
1.0
 10
33.5613
 20
9.5739
 30
0.0
 41
1.0
 10
33.5921
 20
9.580999999999999
 30
0.0
 41
1.0
 10
33.5921
 20
9.580999999999999
 30
0.0
 41
1.0
 10
33.5872
 20
9.5631
 30
0.0
 41
1.0
 10
33.5816
 20
9.545099999999999
 30
0.0
 41
1.0
 10
33.5746
 20
9.526999999999999
 30
0.0
 41
1.0
 10
33.5746
 20
9.526999999999999
 30
0.0
 41
1.0
 10
33.5281
 20
9.301199999999999
 30
0.0
 41
1.0
 10
33.4792
 20
9.070499999999999
 30
0.0
 41
1.0
 10
33.4295
 20
8.8361
 30
0.0
 41
1.0
 10
33.42993333333333
 20
8.745299999999996
 30
0.0
 41
1.0
 10
33.43036666666666
 20
8.654499999999996
 30
0.0
 41
1.0
 10
33.4308
 20
8.563699999999997
 30
0.0
 41
1.0
 10
33.4308
 20
8.5637
 30
0.0
 41
1.0
 10
33.4496
 20
8.511799999999999
 30
0.0
 41
1.0
 10
33.4709
 20
8.461299999999999
 30
0.0
 41
1.0
 10
33.4844
 20
8.4059
 30
0.0
 41
1.0
 10
33.49207026823592
 20
8.242583443193444
 30
0.0
 41
1.0
 10
33.49974053647186
 20
8.079266886386886
 30
0.0
 41
1.0
 10
33.50741080470779
 20
7.915950329580327
 30
0.0
 41
1.0
 10
33.39200720313852
 20
7.892466886386884
 30
0.0
 41
1.0
 10
33.27660360156926
 20
7.868983443193442
 30
0.0
 41
1.0
 10
33.1612
 20
7.845500000000001
 30
0.0
 41
1.0
 10
33.1612
 20
7.8455
 30
0.0
 41
1.0
 10
33.135
 20
7.822099999999998
 30
0.0
 41
1.0
 10
33.1106
 20
7.800399999999998
 30
0.0
 41
1.0
 10
33.0878
 20
7.779899999999998
 30
0.0
 41
1.0
  0
SPLINE
  5
6E9
330
1F
100
AcDbEntity
  8
Layer 1
370
     9
100
AcDbSpline
210
0.0
220
0.0
230
1.0
 70
    13
 71
     3
 72
  1467
 73
  1463
 74
     0
 42
0.000000001
 43
0.0000000001
 40
0.0
 40
0.0
 40
0.0
 40
0.0
 40
0.0000000099999999
 40
0.0015898251192369
 40
0.0015898251192369
 40
0.0015898251192369
 40
1.001589825119236
 40
1.001589825119236
 40
1.001589825119236
 40
1.001589835119236
 40
1.003179650238473
 40
1.003179650238473
 40
1.003179650238473
 40
2.003179650238473
 40
2.003179650238473
 40
2.003179650238473
 40
2.003179660238473
 40
2.00476947535771
 40
2.00476947535771
 40
2.00476947535771
 40
3.00476947535771
 40
3.00476947535771
 40
3.00476947535771
 40
4.00476947535771
 40
4.00476947535771
 40
4.00476947535771
 40
5.00476947535771
 40
5.00476947535771
 40
5.00476947535771
 40
6.00476947535771
 40
6.00476947535771
 40
6.00476947535771
 40
7.00476947535771
 40
7.00476947535771
 40
7.00476947535771
 40
8.004769475357711
 40
8.004769475357711
 40
8.004769475357711
 40
9.004769475357711
 40
9.004769475357711
 40
9.004769475357711
 40
10.00476947535771
 40
10.00476947535771
 40
10.00476947535771
 40
11.00476947535771
 40
11.00476947535771
 40
11.00476947535771
 40
12.00476947535771
 40
12.00476947535771
 40
12.00476947535771
 40
12.00476948535771
 40
12.00635930047695
 40
12.00635930047695
 40
12.00635930047695
 40
12.00635931047695
 40
12.00794912559618
 40
12.00794912559618
 40
12.00794912559618
 40
12.00794913559618
 40
12.00953895071542
 40
12.00953895071542
 40
12.00953895071542
 40
12.00953896071542
 40
12.01112877583466
 40
12.01112877583466
 40
12.01112877583466
 40
12.01112878583466
 40
12.01271860095389
 40
12.01271860095389
 40
12.01271860095389
 40
12.0127186109539
 40
12.01430842607313
 40
12.01430842607313
 40
12.01430842607313
 40
12.01430843607313
 40
12.01589825119237
 40
12.01589825119237
 40
12.01589825119237
 40
12.01589826119237
 40
12.01748807631161
 40
12.01748807631161
 40
12.01748807631161
 40
12.01748808631161
 40
12.01907790143084
 40
12.01907790143084
 40
12.01907790143084
 40
12.01907791143084
 40
12.02066772655008
 40
12.02066772655008
 40
12.02066772655008
 40
12.02066773655008
 40
12.02225755166932
 40
12.02225755166932
 40
12.02225755166932
 40
12.02225756166932
 40
12.02384737678855
 40
12.02384737678855
 40
12.02384737678855
 40
12.02384738678855
 40
12.02543720190779
 40
12.02543720190779
 40
12.02543720190779
 40
12.02543721190779
 40
12.02702702702703
 40
12.02702702702703
 40
12.02702702702703
 40
12.02702703702703
 40
12.02861685214626
 40
12.02861685214626
 40
12.02861685214626
 40
12.02861686214627
 40
12.0302066772655
 40
12.0302066772655
 40
12.0302066772655
 40
12.0302066872655
 40
12.03179650238474
 40
12.03179650238474
 40
12.03179650238474
 40
12.03179651238474
 40
12.03338632750398
 40
12.03338632750398
 40
12.03338632750398
 40
12.03338633750397
 40
12.03497615262321
 40
12.03497615262321
 40
12.03497615262321
 40
12.03497616262321
 40
12.03656597774245
 40
12.03656597774245
 40
12.03656597774245
 40
12.03656598774245
 40
12.03815580286169
 40
12.03815580286169
 40
12.03815580286169
 40
12.03815581286169
 40
12.03974562798092
 40
12.03974562798092
 40
12.03974562798092
 40
12.03974563798092
 40
12.04133545310016
 40
12.04133545310016
 40
12.04133545310016
 40
12.04133546310016
 40
12.0429252782194
 40
12.0429252782194
 40
12.0429252782194
 40
12.0429252882194
 40
12.04451510333863
 40
12.04451510333863
 40
12.04451510333863
 40
12.04451511333864
 40
12.04610492845787
 40
12.04610492845787
 40
12.04610492845787
 40
12.04610493845787
 40
12.04769475357711
 40
12.04769475357711
 40
12.04769475357711
 40
12.04769476357711
 40
12.04928457869635
 40
12.04928457869635
 40
12.04928457869635
 40
12.04928458869635
 40
12.05087440381558
 40
12.05087440381558
 40
12.05087440381558
 40
12.05087441381558
 40
12.05246422893482
 40
12.05246422893482
 40
12.05246422893482
 40
12.05246423893482
 40
12.05405405405406
 40
12.05405405405406
 40
12.05405405405406
 40
12.05405406405406
 40
12.05564387917329
 40
12.05564387917329
 40
12.05564387917329
 40
12.05564388917329
 40
12.05723370429253
 40
12.05723370429253
 40
12.05723370429253
 40
12.05723371429253
 40
12.05882352941177
 40
12.05882352941177
 40
12.05882352941177
 40
12.05882353941177
 40
12.060413354531
 40
12.060413354531
 40
12.060413354531
 40
12.06041336453101
 40
12.06200317965024
 40
12.06200317965024
 40
12.06200317965024
 40
12.06200318965024
 40
12.06359300476948
 40
12.06359300476948
 40
12.06359300476948
 40
12.06359301476948
 40
12.06518282988872
 40
12.06518282988872
 40
12.06518282988872
 40
12.06518283988871
 40
12.06677265500795
 40
12.06677265500795
 40
12.06677265500795
 40
12.06677266500795
 40
12.06836248012719
 40
12.06836248012719
 40
12.06836248012719
 40
12.06836249012719
 40
12.06995230524643
 40
12.06995230524643
 40
12.06995230524643
 40
12.06995231524643
 40
12.07154213036566
 40
12.07154213036566
 40
12.07154213036566
 40
12.07154214036566
 40
12.0731319554849
 40
12.0731319554849
 40
12.0731319554849
 40
12.0731319654849
 40
12.07472178060414
 40
12.07472178060414
 40
12.07472178060414
 40
12.07472179060414
 40
12.07631160572337
 40
12.07631160572337
 40
12.07631160572337
 40
12.07631161572338
 40
12.07790143084261
 40
12.07790143084261
 40
12.07790143084261
 40
12.07790144084261
 40
12.07949125596185
 40
12.07949125596185
 40
12.07949125596185
 40
12.07949126596185
 40
12.08108108108109
 40
12.08108108108109
 40
12.08108108108109
 40
12.08108109108109
 40
12.08267090620032
 40
12.08267090620032
 40
12.08267090620032
 40
12.08267091620032
 40
12.08426073131956
 40
12.08426073131956
 40
12.08426073131956
 40
12.08426074131956
 40
12.0858505564388
 40
12.0858505564388
 40
12.0858505564388
 40
12.0858505664388
 40
12.08744038155803
 40
12.08744038155803
 40
12.08744038155803
 40
12.08744039155803
 40
12.08903020667727
 40
12.08903020667727
 40
12.08903020667727
 40
12.08903021667727
 40
12.09062003179651
 40
12.09062003179651
 40
12.09062003179651
 40
12.09062004179651
 40
12.09220985691574
 40
12.09220985691574
 40
12.09220985691574
 40
12.09220986691575
 40
12.09379968203498
 40
12.09379968203498
 40
12.09379968203498
 40
12.09379969203498
 40
12.09538950715422
 40
12.09538950715422
 40
12.09538950715422
 40
12.09538951715422
 40
12.09697933227346
 40
12.09697933227346
 40
12.09697933227346
 40
12.09697934227345
 40
12.09856915739269
 40
12.09856915739269
 40
12.09856915739269
 40
12.09856916739269
 40
12.10015898251193
 40
12.10015898251193
 40
12.10015898251193
 40
12.10015899251193
 40
12.10174880763117
 40
12.10174880763117
 40
12.10174880763117
 40
12.10174881763117
 40
12.1033386327504
 40
12.1033386327504
 40
12.1033386327504
 40
13.1033386327504
 40
13.1033386327504
 40
13.1033386327504
 40
13.1033386427504
 40
13.10492845786964
 40
13.10492845786964
 40
13.10492845786964
 40
13.10492846786964
 40
13.10651828298888
 40
13.10651828298888
 40
13.10651828298888
 40
13.10651829298888
 40
13.10810810810812
 40
13.10810810810812
 40
13.10810810810812
 40
13.10810811810811
 40
13.10969793322735
 40
13.10969793322735
 40
13.10969793322735
 40
13.10969794322735
 40
13.11128775834659
 40
13.11128775834659
 40
13.11128775834659
 40
13.11128776834659
 40
13.11287758346583
 40
13.11287758346583
 40
13.11287758346583
 40
13.11287759346583
 40
13.11446740858506
 40
13.11446740858506
 40
13.11446740858506
 40
13.11446741858506
 40
13.1160572337043
 40
13.1160572337043
 40
13.1160572337043
 40
13.1160572437043
 40
13.11764705882354
 40
13.11764705882354
 40
13.11764705882354
 40
13.11764706882354
 40
13.11923688394277
 40
13.11923688394277
 40
13.11923688394277
 40
13.11923689394277
 40
13.12082670906201
 40
13.12082670906201
 40
13.12082670906201
 40
13.12082671906201
 40
13.12241653418125
 40
13.12241653418125
 40
13.12241653418125
 40
13.12241654418125
 40
13.12400635930048
 40
13.12400635930048
 40
13.12400635930048
 40
13.12400636930048
 40
13.12559618441972
 40
13.12559618441972
 40
13.12559618441972
 40
13.12559619441972
 40
13.12718600953896
 40
13.12718600953896
 40
13.12718600953896
 40
13.12718601953896
 40
13.12877583465819
 40
13.12877583465819
 40
13.12877583465819
 40
13.1287758446582
 40
13.13036565977743
 40
13.13036565977743
 40
13.13036565977743
 40
13.13036566977743
 40
13.13195548489667
 40
13.13195548489667
 40
13.13195548489667
 40
13.13195549489667
 40
13.13354531001591
 40
13.13354531001591
 40
13.13354531001591
 40
13.1335453200159
 40
13.13513513513514
 40
13.13513513513514
 40
13.13513513513514
 40
13.13513514513514
 40
13.13672496025438
 40
13.13672496025438
 40
13.13672496025438
 40
13.13672497025438
 40
13.13831478537362
 40
13.13831478537362
 40
13.13831478537362
 40
13.13831479537362
 40
13.13990461049285
 40
13.13990461049285
 40
13.13990461049285
 40
13.13990462049285
 40
13.14149443561209
 40
13.14149443561209
 40
13.14149443561209
 40
13.14149444561209
 40
13.14308426073133
 40
13.14308426073133
 40
13.14308426073133
 40
13.14308427073133
 40
13.14467408585056
 40
13.14467408585056
 40
13.14467408585056
 40
13.14467409585056
 40
13.1462639109698
 40
13.1462639109698
 40
13.1462639109698
 40
13.1462639209698
 40
13.14785373608904
 40
13.14785373608904
 40
13.14785373608904
 40
13.14785374608904
 40
13.14944356120827
 40
13.14944356120827
 40
13.14944356120827
 40
13.14944357120827
 40
13.15103338632751
 40
13.15103338632751
 40
13.15103338632751
 40
13.15103339632751
 40
13.15262321144675
 40
13.15262321144675
 40
13.15262321144675
 40
13.15262322144675
 40
13.15421303656599
 40
13.15421303656599
 40
13.15421303656599
 40
13.15421304656599
 40
13.15580286168522
 40
13.15580286168522
 40
13.15580286168522
 40
13.15580287168522
 40
13.15739268680446
 40
13.15739268680446
 40
13.15739268680446
 40
13.15739269680446
 40
13.1589825119237
 40
13.1589825119237
 40
13.1589825119237
 40
13.1589825219237
 40
13.16057233704293
 40
13.16057233704293
 40
13.16057233704293
 40
13.16057234704293
 40
13.16216216216217
 40
13.16216216216217
 40
13.16216216216217
 40
13.16216217216217
 40
13.16375198728141
 40
13.16375198728141
 40
13.16375198728141
 40
13.16375199728141
 40
13.16534181240064
 40
13.16534181240064
 40
13.16534181240064
 40
13.16534182240064
 40
13.16693163751988
 40
13.16693163751988
 40
13.16693163751988
 40
13.16693164751988
 40
13.16852146263912
 40
13.16852146263912
 40
13.16852146263912
 40
13.16852147263912
 40
13.17011128775835
 40
13.17011128775835
 40
13.17011128775835
 40
13.17011129775836
 40
13.17170111287759
 40
13.17170111287759
 40
13.17170111287759
 40
13.17170112287759
 40
13.17329093799683
 40
13.17329093799683
 40
13.17329093799683
 40
13.17329094799683
 40
13.17488076311607
 40
13.17488076311607
 40
13.17488076311607
 40
13.17488077311607
 40
13.1764705882353
 40
13.1764705882353
 40
13.1764705882353
 40
13.1764705982353
 40
13.17806041335454
 40
13.17806041335454
 40
13.17806041335454
 40
13.17806042335454
 40
13.17965023847377
 40
13.17965023847377
 40
13.17965023847377
 40
13.17965024847377
 40
13.18124006359301
 40
13.18124006359301
 40
13.18124006359301
 40
13.18124007359301
 40
13.18282988871225
 40
13.18282988871225
 40
13.18282988871225
 40
13.18282989871225
 40
13.18441971383149
 40
13.18441971383149
 40
13.18441971383149
 40
13.18441972383149
 40
13.18600953895072
 40
13.18600953895072
 40
13.18600953895072
 40
13.18600954895072
 40
13.18759936406996
 40
13.18759936406996
 40
13.18759936406996
 40
13.18759937406996
 40
13.1891891891892
 40
13.1891891891892
 40
13.1891891891892
 40
13.1891891991892
 40
13.19077901430844
 40
13.19077901430844
 40
13.19077901430844
 40
13.19077902430843
 40
13.19236883942767
 40
13.19236883942767
 40
13.19236883942767
 40
13.19236884942767
 40
13.19395866454691
 40
13.19395866454691
 40
13.19395866454691
 40
13.19395867454691
 40
13.19554848966614
 40
13.19554848966614
 40
13.19554848966614
 40
13.19554849966614
 40
13.19713831478538
 40
13.19713831478538
 40
13.19713831478538
 40
13.19713832478538
 40
13.19872813990462
 40
13.19872813990462
 40
13.19872813990462
 40
13.19872814990462
 40
13.20031796502386
 40
13.20031796502386
 40
13.20031796502386
 40
13.20031797502386
 40
13.20190779014309
 40
13.20190779014309
 40
13.20190779014309
 40
13.20190780014309
 40
13.20349761526233
 40
13.20349761526233
 40
13.20349761526233
 40
13.20349762526233
 40
13.20508744038156
 40
13.20508744038156
 40
13.20508744038156
 40
13.20508745038156
 40
13.2066772655008
 40
13.2066772655008
 40
13.2066772655008
 40
13.2066772755008
 40
13.20826709062004
 40
13.20826709062004
 40
13.20826709062004
 40
13.20826710062004
 40
13.20985691573927
 40
13.20985691573927
 40
13.20985691573927
 40
13.20985692573928
 40
13.21144674085851
 40
13.21144674085851
 40
13.21144674085851
 40
13.21144675085851
 40
13.21303656597775
 40
13.21303656597775
 40
13.21303656597775
 40
13.21303657597775
 40
13.21462639109699
 40
13.21462639109699
 40
13.21462639109699
 40
13.21462640109699
 40
13.21621621621622
 40
13.21621621621622
 40
13.21621621621622
 40
13.21621622621622
 40
13.21780604133546
 40
13.21780604133546
 40
13.21780604133546
 40
13.21780605133546
 40
13.2193958664547
 40
13.2193958664547
 40
13.2193958664547
 40
13.2193958764547
 40
13.22098569157393
 40
13.22098569157393
 40
13.22098569157393
 40
13.22098570157393
 40
13.22257551669317
 40
13.22257551669317
 40
13.22257551669317
 40
13.22257552669317
 40
13.22416534181241
 40
13.22416534181241
 40
13.22416534181241
 40
13.22416535181241
 40
13.22575516693164
 40
13.22575516693164
 40
13.22575516693164
 40
13.22575517693164
 40
13.22734499205088
 40
13.22734499205088
 40
13.22734499205088
 40
13.22734500205088
 40
13.22893481717012
 40
13.22893481717012
 40
13.22893481717012
 40
13.22893482717012
 40
13.23052464228936
 40
13.23052464228936
 40
13.23052464228936
 40
13.23052465228935
 40
13.23211446740859
 40
13.23211446740859
 40
13.23211446740859
 40
13.23211447740859
 40
13.23370429252783
 40
13.23370429252783
 40
13.23370429252783
 40
13.23370430252783
 40
13.23529411764706
 40
13.23529411764706
 40
13.23529411764706
 40
13.23529412764707
 40
13.2368839427663
 40
13.2368839427663
 40
13.2368839427663
 40
13.2368839527663
 40
13.23847376788554
 40
13.23847376788554
 40
13.23847376788554
 40
13.23847377788554
 40
13.24006359300478
 40
13.24006359300478
 40
13.24006359300478
 40
13.24006360300478
 40
13.24165341812401
 40
13.24165341812401
 40
13.24165341812401
 40
13.24165342812401
 40
13.24324324324325
 40
13.24324324324325
 40
13.24324324324325
 40
13.24324325324325
 40
13.24483306836249
 40
13.24483306836249
 40
13.24483306836249
 40
13.24483307836249
 40
13.24642289348172
 40
13.24642289348172
 40
13.24642289348172
 40
13.24642290348172
 40
13.24801271860096
 40
13.24801271860096
 40
13.24801271860096
 40
13.24801272860096
 40
13.2496025437202
 40
13.2496025437202
 40
13.2496025437202
 40
13.2496025537202
 40
13.25119236883943
 40
13.25119236883943
 40
13.25119236883943
 40
13.25119237883943
 40
13.25278219395867
 40
13.25278219395867
 40
13.25278219395867
 40
13.25278220395867
 40
13.25437201907791
 40
13.25437201907791
 40
13.25437201907791
 40
13.25437202907791
 40
13.25596184419715
 40
13.25596184419715
 40
13.25596184419715
 40
13.25596185419714
 40
13.25755166931638
 40
13.25755166931638
 40
13.25755166931638
 40
13.25755167931638
 40
13.25914149443562
 40
13.25914149443562
 40
13.25914149443562
 40
13.25914150443562
 40
13.26073131955485
 40
13.26073131955485
 40
13.26073131955485
 40
13.26073132955486
 40
13.26232114467409
 40
13.26232114467409
 40
13.26232114467409
 40
13.26232115467409
 40
13.26391096979333
 40
13.26391096979333
 40
13.26391096979333
 40
13.26391097979333
 40
13.26550079491257
 40
13.26550079491257
 40
13.26550079491257
 40
13.26550080491257
 40
13.2670906200318
 40
13.2670906200318
 40
13.2670906200318
 40
13.2670906300318
 40
13.26868044515104
 40
13.26868044515104
 40
13.26868044515104
 40
13.26868045515104
 40
13.27027027027028
 40
13.27027027027028
 40
13.27027027027028
 40
13.27027028027028
 40
13.27186009538951
 40
13.27186009538951
 40
13.27186009538951
 40
13.27186010538951
 40
13.27344992050875
 40
13.27344992050875
 40
13.27344992050875
 40
13.27344993050875
 40
13.27503974562799
 40
13.27503974562799
 40
13.27503974562799
 40
13.27503975562799
 40
13.27662957074722
 40
13.27662957074722
 40
13.27662957074722
 40
13.27662958074723
 40
13.27821939586646
 40
13.27821939586646
 40
13.27821939586646
 40
13.27821940586646
 40
13.2798092209857
 40
13.2798092209857
 40
13.2798092209857
 40
13.2798092309857
 40
13.28139904610494
 40
13.28139904610494
 40
13.28139904610494
 40
13.28139905610493
 40
13.28298887122417
 40
13.28298887122417
 40
13.28298887122417
 40
13.28298888122417
 40
13.28457869634341
 40
13.28457869634341
 40
13.28457869634341
 40
13.28457870634341
 40
13.28616852146265
 40
13.28616852146265
 40
13.28616852146265
 40
13.28616853146265
 40
13.28775834658188
 40
13.28775834658188
 40
13.28775834658188
 40
13.28775835658188
 40
13.28934817170112
 40
13.28934817170112
 40
13.28934817170112
 40
13.28934818170112
 40
13.29093799682036
 40
13.29093799682036
 40
13.29093799682036
 40
13.29093800682036
 40
13.29252782193959
 40
13.29252782193959
 40
13.29252782193959
 40
13.29252783193959
 40
13.29411764705883
 40
13.29411764705883
 40
13.29411764705883
 40
13.29411765705883
 40
13.29570747217807
 40
13.29570747217807
 40
13.29570747217807
 40
13.29570748217807
 40
13.2972972972973
 40
13.2972972972973
 40
13.2972972972973
 40
13.2972973072973
 40
13.29888712241654
 40
13.29888712241654
 40
13.29888712241654
 40
13.29888713241654
 40
13.30047694753578
 40
13.30047694753578
 40
13.30047694753578
 40
13.30047695753578
 40
13.30206677265501
 40
13.30206677265501
 40
13.30206677265501
 40
13.30206678265501
 40
13.30365659777425
 40
13.30365659777425
 40
13.30365659777425
 40
13.30365660777425
 40
13.30524642289349
 40
13.30524642289349
 40
13.30524642289349
 40
13.30524643289349
 40
13.30683624801273
 40
13.30683624801273
 40
13.30683624801273
 40
13.30683625801272
 40
13.30842607313196
 40
13.30842607313196
 40
13.30842607313196
 40
13.30842608313196
 40
13.3100158982512
 40
13.3100158982512
 40
13.3100158982512
 40
13.3100159082512
 40
13.31160572337044
 40
13.31160572337044
 40
13.31160572337044
 40
13.31160573337044
 40
13.31319554848967
 40
13.31319554848967
 40
13.31319554848967
 40
13.31319555848967
 40
13.31478537360891
 40
13.31478537360891
 40
13.31478537360891
 40
13.31478538360891
 40
13.31637519872815
 40
13.31637519872815
 40
13.31637519872815
 40
13.31637520872815
 40
13.31796502384738
 40
13.31796502384738
 40
13.31796502384738
 40
13.31796503384738
 40
13.31955484896662
 40
13.31955484896662
 40
13.31955484896662
 40
13.31955485896662
 40
13.32114467408586
 40
13.32114467408586
 40
13.32114467408586
 40
13.32114468408586
 40
13.32273449920509
 40
13.32273449920509
 40
13.32273449920509
 40
13.32273450920509
 40
13.32432432432433
 40
13.32432432432433
 40
13.32432432432433
 40
13.32432433432433
 40
13.32591414944357
 40
13.32591414944357
 40
13.32591414944357
 40
13.32591415944357
 40
13.3275039745628
 40
13.3275039745628
 40
13.3275039745628
 40
13.3275039845628
 40
13.32909379968204
 40
13.32909379968204
 40
13.32909379968204
 40
13.32909380968204
 40
13.33068362480128
 40
13.33068362480128
 40
13.33068362480128
 40
13.33068363480128
 40
13.33227344992051
 40
13.33227344992051
 40
13.33227344992051
 40
13.33227345992052
 40
13.33386327503975
 40
13.33386327503975
 40
13.33386327503975
 40
13.33386328503975
 40
13.33545310015899
 40
13.33545310015899
 40
13.33545310015899
 40
13.33545311015899
 40
13.33704292527823
 40
13.33704292527823
 40
13.33704292527823
 40
13.33704293527823
 40
13.33863275039746
 40
13.33863275039746
 40
13.33863275039746
 40
13.33863276039746
 40
13.3402225755167
 40
13.3402225755167
 40
13.3402225755167
 40
13.3402225855167
 40
13.34181240063594
 40
13.34181240063594
 40
13.34181240063594
 40
13.34181241063594
 40
13.34340222575517
 40
13.34340222575517
 40
13.34340222575517
 40
13.34340223575517
 40
13.34499205087441
 40
13.34499205087441
 40
13.34499205087441
 40
13.34499206087441
 40
13.34658187599365
 40
13.34658187599365
 40
13.34658187599365
 40
13.34658188599365
 40
13.34817170111288
 40
13.34817170111288
 40
13.34817170111288
 40
13.34817171111289
 40
13.34976152623212
 40
13.34976152623212
 40
13.34976152623212
 40
13.34976153623212
 40
13.35135135135136
 40
13.35135135135136
 40
13.35135135135136
 40
13.35135136135136
 40
13.35294117647059
 40
13.35294117647059
 40
13.35294117647059
 40
13.35294118647059
 40
13.35453100158983
 40
13.35453100158983
 40
13.35453100158983
 40
13.35453101158983
 40
13.35612082670907
 40
13.35612082670907
 40
13.35612082670907
 40
13.35612083670907
 40
13.35771065182831
 40
13.35771065182831
 40
13.35771065182831
 40
13.35771066182831
 40
13.35930047694754
 40
13.35930047694754
 40
13.35930047694754
 40
13.35930048694754
 40
13.36089030206678
 40
13.36089030206678
 40
13.36089030206678
 40
13.36089031206678
 40
13.36248012718602
 40
13.36248012718602
 40
13.36248012718602
 40
13.36248013718602
 40
13.36406995230525
 40
13.36406995230525
 40
13.36406995230525
 40
13.36406996230525
 40
13.36565977742449
 40
13.36565977742449
 40
13.36565977742449
 40
13.36565978742449
 40
13.36724960254373
 40
13.36724960254373
 40
13.36724960254373
 40
13.36724961254373
 40
13.3704292527822
 40
13.3704292527822
 40
13.3704292527822
 40
13.37201907790144
 40
13.37201907790144
 40
13.37201907790144
 40
13.37201908790144
 40
13.37360890302067
 40
13.37360890302067
 40
13.37360890302067
 40
13.37360891302068
 40
13.37519872813991
 40
13.37519872813991
 40
13.37519872813991
 40
13.37519873813991
 40
13.37678855325915
 40
13.37678855325915
 40
13.37678855325915
 40
13.37678856325915
 40
13.37837837837838
 40
13.37837837837838
 40
13.37837837837838
 40
13.37837838837838
 40
13.37996820349762
 40
13.37996820349762
 40
13.37996820349762
 40
13.37996821349762
 40
13.38155802861686
 40
13.38155802861686
 40
13.38155802861686
 40
13.38155803861686
 40
13.3831478537361
 40
13.3831478537361
 40
13.3831478537361
 40
13.3831478637361
 40
13.38473767885533
 40
13.38473767885533
 40
13.38473767885533
 40
13.38473768885533
 40
13.38632750397457
 40
13.38632750397457
 40
13.38632750397457
 40
13.38632751397457
 40
13.38791732909381
 40
13.38791732909381
 40
13.38791732909381
 40
13.38791733909381
 40
13.38950715421304
 40
13.38950715421304
 40
13.38950715421304
 40
13.38950716421304
 40
13.39109697933228
 40
13.39109697933228
 40
13.39109697933228
 40
13.39109698933228
 40
13.39268680445152
 40
13.39268680445152
 40
13.39268680445152
 40
13.39268681445152
 40
13.39427662957075
 40
13.39427662957075
 40
13.39427662957075
 40
13.39427663957075
 40
13.39586645468999
 40
13.39586645468999
 40
13.39586645468999
 40
13.39586646468999
 40
13.39745627980923
 40
13.39745627980923
 40
13.39745627980923
 40
13.39745628980923
 40
13.39904610492846
 40
13.39904610492846
 40
13.39904610492846
 40
13.39904611492847
 40
13.4006359300477
 40
13.4006359300477
 40
13.4006359300477
 40
13.4006359400477
 40
13.40222575516694
 40
13.40222575516694
 40
13.40222575516694
 40
13.40222576516694
 40
13.40381558028618
 40
13.40381558028618
 40
13.40381558028618
 40
13.40381559028618
 40
13.40540540540541
 40
13.40540540540541
 40
13.40540540540541
 40
13.40540541540541
 40
13.40699523052465
 40
13.40699523052465
 40
13.40699523052465
 40
13.40699524052465
 40
13.40858505564389
 40
13.40858505564389
 40
13.40858505564389
 40
13.40858506564388
 40
13.41017488076312
 40
13.41017488076312
 40
13.41017488076312
 40
13.41017489076312
 40
13.41176470588236
 40
13.41176470588236
 40
13.41176470588236
 40
13.41176471588236
 40
13.4133545310016
 40
13.4133545310016
 40
13.4133545310016
 40
13.4133545410016
 40
13.41494435612083
 40
13.41494435612083
 40
13.41494435612083
 40
13.41494436612083
 40
13.41653418124007
 40
13.41653418124007
 40
13.41653418124007
 40
13.41653419124007
 40
13.41812400635931
 40
13.41812400635931
 40
13.41812400635931
 40
13.41812401635931
 40
13.41971383147855
 40
13.41971383147855
 40
13.41971383147855
 40
13.41971384147854
 40
13.42130365659778
 40
13.42130365659778
 40
13.42130365659778
 40
13.42130366659778
 40
13.42289348171702
 40
13.42289348171702
 40
13.42289348171702
 40
13.42289349171702
 40
13.42448330683625
 40
13.42448330683625
 40
13.42448330683625
 40
13.42448331683625
 40
13.42607313195549
 40
13.42607313195549
 40
13.42607313195549
 40
13.42607314195549
 40
13.42766295707473
 40
13.42766295707473
 40
13.42766295707473
 40
13.42766296707473
 40
13.42925278219397
 40
13.42925278219397
 40
13.42925278219397
 40
13.42925279219397
 40
13.4308426073132
 40
13.4308426073132
 40
13.4308426073132
 40
13.4308426173132
 40
13.43243243243244
 40
13.43243243243244
 40
13.43243243243244
 40
13.43243244243244
 40
13.43402225755167
 40
13.43402225755167
 40
13.43402225755167
 40
13.43402226755167
 40
13.43561208267091
 40
13.43561208267091
 40
13.43561208267091
 40
13.43561209267091
 40
13.43720190779015
 40
13.43720190779015
 40
13.43720190779015
 40
13.43720191779015
 40
13.43879173290939
 40
13.43879173290939
 40
13.43879173290939
 40
13.43879174290939
 40
13.44038155802862
 40
13.44038155802862
 40
13.44038155802862
 40
13.44038156802862
 40
13.44197138314786
 40
13.44197138314786
 40
13.44197138314786
 40
13.44197139314786
 40
13.4435612082671
 40
13.4435612082671
 40
13.4435612082671
 40
13.4435612182671
 40
13.44515103338633
 40
13.44515103338633
 40
13.44515103338633
 40
13.44515104338633
 40
13.44674085850557
 40
13.44674085850557
 40
13.44674085850557
 40
13.44674086850557
 40
13.44833068362481
 40
13.44833068362481
 40
13.44833068362481
 40
13.44833069362481
 40
13.44992050874404
 40
13.44992050874404
 40
13.44992050874404
 40
13.44992051874404
 40
13.45151033386328
 40
13.45151033386328
 40
13.45151033386328
 40
13.45151034386328
 40
13.45310015898252
 40
13.45310015898252
 40
13.45310015898252
 40
13.45310016898252
 40
13.45468998410175
 40
13.45468998410175
 40
13.45468998410175
 40
13.45468999410176
 40
13.45627980922099
 40
13.45627980922099
 40
13.45627980922099
 40
13.45627981922099
 40
13.45786963434023
 40
13.45786963434023
 40
13.45786963434023
 40
13.45786964434023
 40
13.45945945945947
 40
13.45945945945947
 40
13.45945945945947
 40
13.45945946945947
 40
13.4610492845787
 40
13.4610492845787
 40
13.4610492845787
 40
13.4610492945787
 40
13.46263910969794
 40
13.46263910969794
 40
13.46263910969794
 40
13.46263911969794
 40
13.46422893481718
 40
13.46422893481718
 40
13.46422893481718
 40
13.46422894481718
 40
13.46581875993641
 40
13.46581875993641
 40
13.46581875993641
 40
13.46581876993641
 40
13.46740858505565
 40
13.46740858505565
 40
13.46740858505565
 40
13.46740859505565
 40
13.46899841017489
 40
13.46899841017489
 40
13.46899841017489
 40
13.46899842017489
 40
13.47058823529412
 40
13.47058823529412
 40
13.47058823529412
 40
13.47058824529412
 40
13.47217806041336
 40
13.47217806041336
 40
13.47217806041336
 40
13.47217807041336
 40
13.4737678855326
 40
13.4737678855326
 40
13.4737678855326
 40
13.4737678955326
 40
13.47535771065184
 40
13.47535771065184
 40
13.47535771065184
 40
13.47535772065183
 40
13.47694753577107
 40
13.47694753577107
 40
13.47694753577107
 40
13.47694754577107
 40
13.47853736089031
 40
13.47853736089031
 40
13.47853736089031
 40
13.47853737089031
 40
13.48012718600954
 40
13.48012718600954
 40
13.48012718600954
 40
13.48012719600955
 40
13.48171701112878
 40
13.48171701112878
 40
13.48171701112878
 40
13.48171702112878
 40
13.48330683624802
 40
13.48330683624802
 40
13.48330683624802
 40
13.48330684624802
 40
13.48489666136726
 40
13.48489666136726
 40
13.48489666136726
 40
13.48489667136726
 40
13.48648648648649
 40
13.48648648648649
 40
13.48648648648649
 40
13.48648649648649
 40
13.48807631160573
 40
13.48807631160573
 40
13.48807631160573
 40
13.48807632160573
 40
13.48966613672497
 40
13.48966613672497
 40
13.48966613672497
 40
13.48966614672497
 40
13.4912559618442
 40
13.4912559618442
 40
13.4912559618442
 40
13.4912559718442
 40
13.49284578696344
 40
13.49284578696344
 40
13.49284578696344
 40
13.49284579696344
 40
13.49443561208268
 40
13.49443561208268
 40
13.49443561208268
 40
13.49443562208268
 40
13.49602543720191
 40
13.49602543720191
 40
13.49602543720191
 40
13.49602544720191
 40
13.49761526232115
 40
13.49761526232115
 40
13.49761526232115
 40
13.49761527232115
 40
13.49920508744039
 40
13.49920508744039
 40
13.49920508744039
 40
13.49920509744039
 40
13.50079491255963
 40
13.50079491255963
 40
13.50079491255963
 40
13.50079492255962
 40
13.50238473767886
 40
13.50238473767886
 40
13.50238473767886
 40
13.50238474767886
 40
13.5039745627981
 40
13.5039745627981
 40
13.5039745627981
 40
13.5039745727981
 40
13.50556438791733
 40
13.50556438791733
 40
13.50556438791733
 40
13.50556439791734
 40
13.50715421303657
 40
13.50715421303657
 40
13.50715421303657
 40
13.50715422303657
 40
13.50874403815581
 40
13.50874403815581
 40
13.50874403815581
 40
13.50874404815581
 40
13.51033386327505
 40
13.51033386327505
 40
13.51033386327505
 40
13.51033387327505
 40
13.51192368839428
 40
13.51192368839428
 40
13.51192368839428
 40
13.51192369839428
 40
13.51351351351352
 40
13.51351351351352
 40
13.51351351351352
 40
13.51351352351352
 40
13.51510333863276
 40
13.51510333863276
 40
13.51510333863276
 40
13.51510334863276
 40
13.51669316375199
 40
13.51669316375199
 40
13.51669316375199
 40
13.51669317375199
 40
13.51828298887123
 40
13.51828298887123
 40
13.51828298887123
 40
13.51828299887123
 40
13.51987281399047
 40
13.51987281399047
 40
13.51987281399047
 40
13.51987282399047
 40
13.5214626391097
 40
13.5214626391097
 40
13.5214626391097
 40
13.52146264910971
 40
13.52305246422894
 40
13.52305246422894
 40
13.52305246422894
 40
13.52305247422894
 40
13.52464228934818
 40
13.52464228934818
 40
13.52464228934818
 40
13.52464229934818
 40
13.52623211446741
 40
13.52623211446741
 40
13.52623211446741
 40
13.52623212446741
 40
13.52782193958665
 40
13.52782193958665
 40
13.52782193958665
 40
13.52782194958665
 40
13.52941176470589
 40
13.52941176470589
 40
13.52941176470589
 40
13.52941177470589
 40
13.53100158982513
 40
13.53100158982513
 40
13.53100158982513
 40
13.53100159982512
 40
13.53259141494436
 40
13.53259141494436
 40
13.53259141494436
 40
13.53259142494436
 40
13.5341812400636
 40
13.5341812400636
 40
13.5341812400636
 40
13.5341812500636
 40
13.53577106518284
 40
13.53577106518284
 40
13.53577106518284
 40
13.53577107518283
 40
13.53736089030207
 40
13.53736089030207
 40
13.53736089030207
 40
13.53736090030207
 40
13.53895071542131
 40
13.53895071542131
 40
13.53895071542131
 40
13.53895072542131
 40
13.54054054054055
 40
13.54054054054055
 40
13.54054054054055
 40
13.54054055054055
 40
13.54213036565978
 40
13.54213036565978
 40
13.54213036565978
 40
13.54213037565978
 40
13.54372019077902
 40
13.54372019077902
 40
13.54372019077902
 40
13.54372020077902
 40
13.54531001589826
 40
13.54531001589826
 40
13.54531001589826
 40
13.54531002589826
 40
13.54689984101749
 40
13.54689984101749
 40
13.54689984101749
 40
13.54689985101749
 40
13.54848966613673
 40
13.54848966613673
 40
13.54848966613673
 40
13.54848967613673
 40
13.55007949125597
 40
13.55007949125597
 40
13.55007949125597
 40
13.55007950125597
 40
13.5516693163752
 40
13.5516693163752
 40
13.5516693163752
 40
13.5516693263752
 40
13.55325914149444
 40
13.55325914149444
 40
13.55325914149444
 40
13.55325915149444
 40
13.55484896661368
 40
13.55484896661368
 40
13.55484896661368
 40
13.55484897661368
 40
13.55643879173292
 40
13.55643879173292
 40
13.55643879173292
 40
13.55643880173291
 40
13.55802861685215
 40
13.55802861685215
 40
13.55802861685215
 40
13.55802862685215
 40
13.55961844197139
 40
13.55961844197139
 40
13.55961844197139
 40
13.55961845197139
 40
13.56120826709062
 40
13.56120826709062
 40
13.56120826709062
 40
13.56120827709063
 40
13.56279809220986
 40
13.56279809220986
 40
13.56279809220986
 40
13.56279810220986
 40
13.5643879173291
 40
13.5643879173291
 40
13.5643879173291
 40
13.5643879273291
 40
13.56597774244834
 40
13.56597774244834
 40
13.56597774244834
 40
13.56597775244834
 40
13.56756756756757
 40
13.56756756756757
 40
13.56756756756757
 40
13.56756756756757
 10
14.3294
 20
13.6194
 30
0.0
 41
1.0
 10
14.3294
 20
13.6194
 30
0.0
 41
1.0
 10
14.2949
 20
13.5779
 30
0.0
 41
1.0
 10
14.1126
 20
13.5865
 30
0.0
 41
1.0
 10
13.9725
 20
13.5803
 30
0.0
 41
1.0
 10
13.75623333333333
 20
13.58533333333333
 30
0.0
 41
1.0
 10
13.53996666666666
 20
13.59036666666666
 30
0.0
 41
1.0
 10
13.3237
 20
13.5954
 30
0.0
 41
1.0
 10
13.3237
 20
13.5954
 30
0.0
 41
1.0
 10
13.26
 20
13.6111
 30
0.0
 41
1.0
 10
13.1083
 20
13.5968
 30
0.0
 41
1.0
 10
12.9976
 20
13.5964
 30
0.0
 41
1.0
 10
13.30046666666667
 20
13.54463333333332
 30
0.0
 41
1.0
 10
13.60333333333333
 20
13.49286666666666
 30
0.0
 41
1.0
 10
13.9062
 20
13.44109999999999
 30
0.0
 41
1.0
 10
13.9062
 20
13.4411
 30
0.0
 41
1.0
 10
13.9254
 20
13.4327
 30
0.0
 41
1.0
 10
13.9433
 20
13.4241
 30
0.0
 41
1.0
 10
13.9603
 20
13.4155
 30
0.0
 41
1.0
 10
13.901
 20
13.39373333333333
 30
0.0
 41
1.0
 10
13.8417
 20
13.37196666666667
 30
0.0
 41
1.0
 10
13.7824
 20
13.3502
 30
0.0
 41
1.0
 10
13.90263333333333
 20
13.32856666666667
 30
0.0
 41
1.0
 10
14.02286666666667
 20
13.30693333333333
 30
0.0
 41
1.0
 10
14.1431
 20
13.2853
 30
0.0
 41
1.0
 10
13.94913333333333
 20
13.20726666666667
 30
0.0
 41
1.0
 10
13.75516666666667
 20
13.12923333333333
 30
0.0
 41
1.0
 10
13.5612
 20
13.0512
 30
0.0
 41
1.0
 10
13.77756666666667
 20
13.0848
 30
0.0
 41
1.0
 10
13.99393333333333
 20
13.1184
 30
0.0
 41
1.0
 10
14.2103
 20
13.152
 30
0.0
 41
1.0
 10
13.9389
 20
12.99163333333333
 30
0.0
 41
1.0
 10
13.6675
 20
12.83126666666667
 30
0.0
 41
1.0
 10
13.3961
 20
12.6709
 30
0.0
 41
1.0
 10
13.65426666666666
 20
12.74473333333333
 30
0.0
 41
1.0
 10
13.91243333333333
 20
12.81856666666666
 30
0.0
 41
1.0
 10
14.1706
 20
12.8924
 30
0.0
 41
1.0
 10
14.10876666666666
 20
12.80796666666667
 30
0.0
 41
1.0
 10
14.04693333333333
 20
12.72353333333333
 30
0.0
 41
1.0
 10
13.98509999999999
 20
12.6391
 30
0.0
 41
1.0
 10
14.1249
 20
12.70886666666666
 30
0.0
 41
1.0
 10
14.2647
 20
12.77863333333333
 30
0.0
 41
1.0
 10
14.4045
 20
12.8484
 30
0.0
 41
1.0
 10
14.3289
 20
12.75043333333333
 30
0.0
 41
1.0
 10
14.2533
 20
12.65246666666666
 30
0.0
 41
1.0
 10
14.1777
 20
12.5545
 30
0.0
 41
1.0
 10
14.31233333333333
 20
12.64803333333333
 30
0.0
 41
1.0
 10
14.44696666666667
 20
12.74156666666667
 30
0.0
 41
1.0
 10
14.5816
 20
12.8351
 30
0.0
 41
1.0
 10
14.5816
 20
12.8351
 30
0.0
 41
1.0
 10
14.6511
 20
12.8327
 30
0.0
 41
1.0
 10
14.7286
 20
12.8332
 30
0.0
 41
1.0
 10
14.8148
 20
12.8379
 30
0.0
 41
1.0
 10
14.8148
 20
12.8379
 30
0.0
 41
1.0
 10
14.7878
 20
12.4042
 30
0.0
 41
1.0
 10
16.1701
 20
11.2118
 30
0.0
 41
1.0
 10
16.5225
 20
10.8324
 30
0.0
 41
1.0
 10
16.5225
 20
10.8324
 30
0.0
 41
1.0
 10
16.8748
 20
10.453
 30
0.0
 41
1.0
 10
17.2812
 20
9.693899999999999
 30
0.0
 41
1.0
 10
17.6064
 20
10.0735
 30
0.0
 41
1.0
 10
17.6064
 20
10.0735
 30
0.0
 41
1.0
 10
17.9141
 20
10.4324
 30
0.0
 41
1.0
 10
17.9307
 20
11.7126
 30
0.0
 41
1.0
 10
17.9546
 20
12.2399
 30
0.0
 41
1.0
 10
17.9546
 20
12.2399
 30
0.0
 41
1.0
 10
18.0163
 20
12.2127
 30
0.0
 41
1.0
 10
18.0547
 20
12.186
 30
0.0
 41
1.0
 10
18.1159
 20
12.1589
 30
0.0
 41
1.0
 10
18.1159
 20
12.1589
 30
0.0
 41
1.0
 10
18.4279
 20
12.05
 30
0.0
 41
1.0
 10
18.7968
 20
11.9453
 30
0.0
 41
1.0
 10
19.1178
 20
11.843
 30
0.0
 41
1.0
 10
19.1178
 20
11.843
 30
0.0
 41
1.0
 10
19.424
 20
11.7781
 30
0.0
 41
1.0
 10
19.7977
 20
11.7002
 30
0.0
 41
1.0
 10
20.1813
 20
11.6715
 30
0.0
 41
1.0
 10
20.1813
 20
11.6715
 30
0.0
 41
1.0
 10
20.0963
 20
11.0827
 30
0.0
 41
1.0
 10
19.9403
 20
10.4109
 30
0.0
 41
1.0
 10
19.7476
 20
10.1411
 30
0.0
 41
1.0
 10
19.7476
 20
10.1411
 30
0.0
 41
1.0
 10
19.5443
 20
9.8565
 30
0.0
 41
1.0
 10
20.0728
 20
7.173399999999999
 30
0.0
 41
1.0
 10
21.0485
 20
6.035099999999999
 30
0.0
 41
1.0
 10
21.0485
 20
6.035099999999999
 30
0.0
 41
1.0
 10
22.0242
 20
4.896799999999998
 30
0.0
 41
1.0
 10
22.1461
 20
4.9781
 30
0.0
 41
1.0
 10
21.9835
 20
5.994399999999998
 30
0.0
 41
1.0
 10
21.9835
 20
5.994399999999998
 30
0.0
 41
1.0
 10
21.8852
 20
6.6089
 30
0.0
 41
1.0
 10
22.0245
 20
6.8367
 30
0.0
 41
1.0
 10
22.1501
 20
6.9211
 30
0.0
 41
1.0
 10
22.1501
 20
6.9211
 30
0.0
 41
1.0
 10
22.1698
 20
6.915
 30
0.0
 41
1.0
 10
22.1892
 20
6.909099999999998
 30
0.0
 41
1.0
 10
22.2081
 20
6.903599999999999
 30
0.0
 41
1.0
 10
22.2081
 20
6.903599999999999
 30
0.0
 41
1.0
 10
22.3009
 20
6.8593
 30
0.0
 41
1.0
 10
22.4135
 20
6.8258
 30
0.0
 41
1.0
 10
22.5352
 20
6.802399999999998
 30
0.0
 41
1.0
 10
22.5352
 20
6.802399999999998
 30
0.0
 41
1.0
 10
22.5352
 20
6.802399999999998
 30
0.0
 41
1.0
 10
22.6161
 20
6.789399999999998
 30
0.0
 41
1.0
 10
22.6161
 20
6.789399999999998
 30
0.0
 41
1.0
 10
22.6161
 20
6.789399999999998
 30
0.0
 41
1.0
 10
22.6161
 20
6.789399999999998
 30
0.0
 41
1.0
 10
22.6343
 20
6.7747
 30
0.0
 41
1.0
 10
22.6343
 20
6.7747
 30
0.0
 41
1.0
 10
22.6343
 20
6.7747
 30
0.0
 41
1.0
 10
22.6343
 20
6.7747
 30
0.0
 41
1.0
 10
22.7317
 20
6.663499999999999
 30
0.0
 41
1.0
 10
22.7317
 20
6.663499999999999
 30
0.0
 41
1.0
 10
22.7317
 20
6.663499999999999
 30
0.0
 41
1.0
 10
22.8417
 20
6.557999999999998
 30
0.0
 41
1.0
 10
22.836
 20
6.6185
 30
0.0
 41
1.0
 10
22.9387
 20
6.5425
 30
0.0
 41
1.0
 10
22.9387
 20
6.5425
 30
0.0
 41
1.0
 10
23.2368
 20
6.3116
 30
0.0
 41
1.0
 10
23.53
 20
6.1909
 30
0.0
 41
1.0
 10
23.9997
 20
6.3216
 30
0.0
 41
1.0
 10
23.9997
 20
6.3216
 30
0.0
 41
1.0
 10
24.0192
 20
6.331299999999998
 30
0.0
 41
1.0
 10
24.0378
 20
6.340499999999998
 30
0.0
 41
1.0
 10
24.0564
 20
6.3497
 30
0.0
 41
1.0
 10
24.0564
 20
6.3497
 30
0.0
 41
1.0
 10
24.0564
 20
6.3497
 30
0.0
 41
1.0
 10
24.0928
 20
6.346499999999998
 30
0.0
 41
1.0
 10
24.0928
 20
6.346499999999998
 30
0.0
 41
1.0
 10
24.0928
 20
6.346499999999998
 30
0.0
 41
1.0
 10
24.1587
 20
6.296299999999998
 30
0.0
 41
1.0
 10
24.2192
 20
6.260299999999999
 30
0.0
 41
1.0
 10
24.2803
 20
6.225699999999998
 30
0.0
 41
1.0
 10
24.2803
 20
6.225699999999998
 30
0.0
 41
1.0
 10
24.4306
 20
6.144099999999999
 30
0.0
 41
1.0
 10
24.58
 20
6.0753
 30
0.0
 41
1.0
 10
24.7905
 20
6.016
 30
0.0
 41
1.0
 10
24.7905
 20
6.016
 30
0.0
 41
1.0
 10
25.0562
 20
5.9721
 30
0.0
 41
1.0
 10
25.1955
 20
6.0086
 30
0.0
 41
1.0
 10
25.4573
 20
6.0551
 30
0.0
 41
1.0
 10
25.4573
 20
6.0551
 30
0.0
 41
1.0
 10
25.5307
 20
6.0662
 30
0.0
 41
1.0
 10
25.5986
 20
6.0804
 30
0.0
 41
1.0
 10
25.664
 20
6.096099999999998
 30
0.0
 41
1.0
 10
25.664
 20
6.096099999999998
 30
0.0
 41
1.0
 10
25.6883
 20
6.0696
 30
0.0
 41
1.0
 10
25.7116
 20
6.047799999999998
 30
0.0
 41
1.0
 10
25.7361
 20
6.0235
 30
0.0
 41
1.0
 10
25.7361
 20
6.0235
 30
0.0
 41
1.0
 10
25.9876
 20
5.9146
 30
0.0
 41
1.0
 10
26.2627
 20
5.8772
 30
0.0
 41
1.0
 10
26.4499
 20
5.9
 30
0.0
 41
1.0
 10
26.4499
 20
5.9
 30
0.0
 41
1.0
 10
26.6165
 20
5.890299999999998
 30
0.0
 41
1.0
 10
26.6735
 20
5.857899999999998
 30
0.0
 41
1.0
 10
26.8137
 20
5.857199999999998
 30
0.0
 41
1.0
 10
26.8137
 20
5.857199999999998
 30
0.0
 41
1.0
 10
26.9582
 20
5.868699999999998
 30
0.0
 41
1.0
 10
26.9886
 20
5.912399999999998
 30
0.0
 41
1.0
 10
27.1283
 20
5.941399999999998
 30
0.0
 41
1.0
 10
27.1283
 20
5.941399999999998
 30
0.0
 41
1.0
 10
27.2515
 20
5.9675
 30
0.0
 41
1.0
 10
27.319
 20
5.960899999999998
 30
0.0
 41
1.0
 10
27.4257
 20
5.9949
 30
0.0
 41
1.0
 10
27.4257
 20
5.9949
 30
0.0
 41
1.0
 10
27.4661
 20
6.011899999999998
 30
0.0
 41
1.0
 10
27.5061
 20
6.0353
 30
0.0
 41
1.0
 10
27.5464
 20
6.058099999999998
 30
0.0
 41
1.0
 10
27.5464
 20
6.058099999999998
 30
0.0
 41
1.0
 10
27.5464
 20
6.058099999999998
 30
0.0
 41
1.0
 10
27.5579
 20
6.057199999999999
 30
0.0
 41
1.0
 10
27.5579
 20
6.057199999999999
 30
0.0
 41
1.0
 10
27.5579
 20
6.057199999999999
 30
0.0
 41
1.0
 10
27.6025
 20
6.0114
 30
0.0
 41
1.0
 10
27.651
 20
5.968099999999998
 30
0.0
 41
1.0
 10
27.7054
 20
5.929499999999999
 30
0.0
 41
1.0
 10
27.7054
 20
5.929499999999999
 30
0.0
 41
1.0
 10
27.9105
 20
5.7807
 30
0.0
 41
1.0
 10
28.1781
 20
5.727599999999998
 30
0.0
 41
1.0
 10
28.4026
 20
5.7365
 30
0.0
 41
1.0
 10
28.4026
 20
5.7365
 30
0.0
 41
1.0
 10
28.6995
 20
5.782799999999999
 30
0.0
 41
1.0
 10
28.9901
 20
5.9076
 30
0.0
 41
1.0
 10
29.2643
 20
6.0608
 30
0.0
 41
1.0
 10
29.2643
 20
6.0608
 30
0.0
 41
1.0
 10
29.2643
 20
6.0608
 30
0.0
 41
1.0
 10
29.4677
 20
6.1806
 30
0.0
 41
1.0
 10
29.4677
 20
6.1806
 30
0.0
 41
1.0
 10
29.4677
 20
6.1806
 30
0.0
 41
1.0
 10
29.4677
 20
6.1806
 30
0.0
 41
1.0
 10
29.4951
 20
6.1977
 30
0.0
 41
1.0
 10
29.4951
 20
6.1977
 30
0.0
 41
1.0
 10
29.4951
 20
6.1977
 30
0.0
 41
1.0
 10
29.4951
 20
6.1977
 30
0.0
 41
1.0
 10
29.5248
 20
6.202799999999998
 30
0.0
 41
1.0
 10
29.5248
 20
6.202799999999998
 30
0.0
 41
1.0
 10
29.5248
 20
6.202799999999998
 30
0.0
 41
1.0
 10
29.7155
 20
6.1474
 30
0.0
 41
1.0
 10
29.8944
 20
6.178999999999998
 30
0.0
 41
1.0
 10
30.0541
 20
6.2111
 30
0.0
 41
1.0
 10
30.0541
 20
6.2111
 30
0.0
 41
1.0
 10
30.1641
 20
6.2361
 30
0.0
 41
1.0
 10
30.306
 20
6.2849
 30
0.0
 41
1.0
 10
30.3778
 20
6.297399999999998
 30
0.0
 41
1.0
 10
30.3778
 20
6.297399999999998
 30
0.0
 41
1.0
 10
30.5974
 20
6.423399999999999
 30
0.0
 41
1.0
 10
30.8127
 20
6.562999999999998
 30
0.0
 41
1.0
 10
31.0243
 20
6.698699999999998
 30
0.0
 41
1.0
 10
31.0243
 20
6.698699999999998
 30
0.0
 41
1.0
 10
31.0243
 20
6.698699999999998
 30
0.0
 41
1.0
 10
31.0838
 20
6.694799999999998
 30
0.0
 41
1.0
 10
31.0838
 20
6.694799999999998
 30
0.0
 41
1.0
 10
31.0838
 20
6.694799999999998
 30
0.0
 41
1.0
 10
31.1481
 20
6.6486
 30
0.0
 41
1.0
 10
31.2188
 20
6.601499999999998
 30
0.0
 41
1.0
 10
31.31
 20
6.585799999999998
 30
0.0
 41
1.0
 10
31.31
 20
6.585799999999998
 30
0.0
 41
1.0
 10
31.5192
 20
6.534399999999998
 30
0.0
 41
1.0
 10
31.7185
 20
6.617399999999999
 30
0.0
 41
1.0
 10
31.8373
 20
6.689199999999998
 30
0.0
 41
1.0
 10
31.8373
 20
6.689199999999998
 30
0.0
 41
1.0
 10
31.9369
 20
6.7945
 30
0.0
 41
1.0
 10
32.0175
 20
6.862
 30
0.0
 41
1.0
 10
32.1098
 20
6.95
 30
0.0
 41
1.0
 10
32.1098
 20
6.95
 30
0.0
 41
1.0
 10
32.2072
 20
7.0705
 30
0.0
 41
1.0
 10
32.211
 20
7.1493
 30
0.0
 41
1.0
 10
32.3368
 20
7.2198
 30
0.0
 41
1.0
 10
32.3368
 20
7.2198
 30
0.0
 41
1.0
 10
32.4112
 20
7.242499999999998
 30
0.0
 41
1.0
 10
32.4816
 20
7.2515
 30
0.0
 41
1.0
 10
32.5224
 20
7.2727
 30
0.0
 41
1.0
 10
32.5224
 20
7.2727
 30
0.0
 41
1.0
 10
32.5649
 20
7.2571
 30
0.0
 41
1.0
 10
32.6151
 20
7.2468
 30
0.0
 41
1.0
 10
32.6697
 20
7.2298
 30
0.0
 41
1.0
 10
32.6697
 20
7.2298
 30
0.0
 41
1.0
 10
32.6697
 20
7.2298
 30
0.0
 41
1.0
 10
32.7107
 20
7.217999999999999
 30
0.0
 41
1.0
 10
32.7107
 20
7.217999999999999
 30
0.0
 41
1.0
 10
32.7107
 20
7.217999999999999
 30
0.0
 41
1.0
 10
32.7107
 20
7.217999999999999
 30
0.0
 41
1.0
 10
32.7311
 20
7.212299999999999
 30
0.0
 41
1.0
 10
32.7311
 20
7.212299999999999
 30
0.0
 41
1.0
 10
32.7311
 20
7.212299999999999
 30
0.0
 41
1.0
 10
32.7311
 20
7.212299999999999
 30
0.0
 41
1.0
 10
32.7337
 20
7.2115
 30
0.0
 41
1.0
 10
32.7337
 20
7.2115
 30
0.0
 41
1.0
 10
32.7337
 20
7.2115
 30
0.0
 41
1.0
 10
32.7337
 20
7.2115
 30
0.0
 41
1.0
 10
32.7341
 20
7.211299999999998
 30
0.0
 41
1.0
 10
32.7341
 20
7.211299999999998
 30
0.0
 41
1.0
 10
32.7341
 20
7.211299999999998
 30
0.0
 41
1.0
 10
32.73960000000001
 20
7.214199999999999
 30
0.0
 41
1.0
 10
32.7425
 20
7.2157
 30
0.0
 41
1.0
 10
32.74430000000001
 20
7.216599999999998
 30
0.0
 41
1.0
 10
32.74430000000001
 20
7.216599999999998
 30
0.0
 41
1.0
 10
32.7311
 20
7.2099
 30
0.0
 41
1.0
 10
32.6575
 20
7.173099999999998
 30
0.0
 41
1.0
 10
32.87
 20
7.2793
 30
0.0
 41
1.0
 10
32.87
 20
7.2793
 30
0.0
 41
1.0
 10
32.87
 20
7.2793
 30
0.0
 41
1.0
 10
32.8701
 20
7.279499999999998
 30
0.0
 41
1.0
 10
32.8701
 20
7.279499999999998
 30
0.0
 41
1.0
 10
32.8701
 20
7.279499999999998
 30
0.0
 41
1.0
 10
32.8701
 20
7.279499999999998
 30
0.0
 41
1.0
 10
32.8701
 20
7.2796
 30
0.0
 41
1.0
 10
32.8701
 20
7.2796
 30
0.0
 41
1.0
 10
32.8701
 20
7.2796
 30
0.0
 41
1.0
 10
32.8701
 20
7.2796
 30
0.0
 41
1.0
 10
32.8706
 20
7.2801
 30
0.0
 41
1.0
 10
32.8706
 20
7.2801
 30
0.0
 41
1.0
 10
32.8706
 20
7.2801
 30
0.0
 41
1.0
 10
32.8706
 20
7.2801
 30
0.0
 41
1.0
 10
32.8713
 20
7.2811
 30
0.0
 41
1.0
 10
32.8713
 20
7.2811
 30
0.0
 41
1.0
 10
32.8713
 20
7.2811
 30
0.0
 41
1.0
 10
32.8713
 20
7.2811
 30
0.0
 41
1.0
 10
32.8745
 20
7.285099999999999
 30
0.0
 41
1.0
 10
32.8745
 20
7.285099999999999
 30
0.0
 41
1.0
 10
32.8745
 20
7.285099999999999
 30
0.0
 41
1.0
 10
32.8745
 20
7.285099999999999
 30
0.0
 41
1.0
 10
32.8805
 20
7.292799999999998
 30
0.0
 41
1.0
 10
32.8805
 20
7.292799999999998
 30
0.0
 41
1.0
 10
32.8805
 20
7.292799999999998
 30
0.0
 41
1.0
 10
32.8805
 20
7.292799999999998
 30
0.0
 41
1.0
 10
32.9292
 20
7.3525
 30
0.0
 41
1.0
 10
32.9292
 20
7.3525
 30
0.0
 41
1.0
 10
32.9292
 20
7.3525
 30
0.0
 41
1.0
 10
33.035
 20
7.623099999999999
 30
0.0
 41
1.0
 10
33.3581
 20
7.8985
 30
0.0
 41
1.0
 10
33.5619
 20
7.840099999999998
 30
0.0
 41
1.0
 10
33.5619
 20
7.840099999999998
 30
0.0
 41
1.0
 10
33.6289
 20
7.6085
 30
0.0
 41
1.0
 10
33.6177
 20
7.1078
 30
0.0
 41
1.0
 10
33.5572
 20
6.625799999999999
 30
0.0
 41
1.0
 10
33.58700000000001
 20
6.551699999999999
 30
0.0
 41
1.0
 10
33.6168
 20
6.477599999999999
 30
0.0
 41
1.0
 10
33.64659999999999
 20
6.4035
 30
0.0
 41
1.0
 10
33.6466
 20
6.4035
 30
0.0
 41
1.0
 10
33.6466
 20
6.4035
 30
0.0
 41
1.0
 10
33.6579
 20
6.394899999999998
 30
0.0
 41
1.0
 10
33.6579
 20
6.394899999999998
 30
0.0
 41
1.0
 10
33.6579
 20
6.394899999999998
 30
0.0
 41
1.0
 10
33.6579
 20
6.394899999999998
 30
0.0
 41
1.0
 10
33.6886
 20
6.3707
 30
0.0
 41
1.0
 10
33.6886
 20
6.3707
 30
0.0
 41
1.0
 10
33.6886
 20
6.3707
 30
0.0
 41
1.0
 10
33.6886
 20
6.3707
 30
0.0
 41
1.0
 10
33.7517
 20
6.315699999999998
 30
0.0
 41
1.0
 10
33.7517
 20
6.315699999999998
 30
0.0
 41
1.0
 10
33.7517
 20
6.315699999999998
 30
0.0
 41
1.0
 10
33.7939
 20
6.2784
 30
0.0
 41
1.0
 10
33.8343
 20
6.2361
 30
0.0
 41
1.0
 10
33.874
 20
6.1942
 30
0.0
 41
1.0
 10
33.874
 20
6.1942
 30
0.0
 41
1.0
 10
33.9524
 20
6.108299999999998
 30
0.0
 41
1.0
 10
34.0264
 20
6.017
 30
0.0
 41
1.0
 10
34.0924
 20
5.919699999999998
 30
0.0
 41
1.0
 10
34.0924
 20
5.919699999999998
 30
0.0
 41
1.0
 10
34.2263
 20
5.7262
 30
0.0
 41
1.0
 10
34.3335
 20
5.513899999999998
 30
0.0
 41
1.0
 10
34.4174
 20
5.293999999999998
 30
0.0
 41
1.0
 10
34.4174
 20
5.293999999999998
 30
0.0
 41
1.0
 10
34.604
 20
4.7674
 30
0.0
 41
1.0
 10
34.6144
 20
4.5547
 30
0.0
 41
1.0
 10
34.6605
 20
4.375799999999999
 30
0.0
 41
1.0
 10
34.6605
 20
4.375799999999999
 30
0.0
 41
1.0
 10
34.6834
 20
4.195
 30
0.0
 41
1.0
 10
34.7476
 20
4.0193
 30
0.0
 41
1.0
 10
34.672
 20
3.573199999999998
 30
0.0
 41
1.0
 10
34.672
 20
3.573199999999998
 30
0.0
 41
1.0
 10
34.52920000000001
 20
2.885899999999999
 30
0.0
 41
1.0
 10
33.9391
 20
2.524099999999998
 30
0.0
 41
1.0
 10
33.3858
 20
2.242199999999999
 30
0.0
 41
1.0
 10
33.3858
 20
2.242199999999999
 30
0.0
 41
1.0
 10
32.8227
 20
1.954599999999999
 30
0.0
 41
1.0
 10
32.2337
 20
1.725
 30
0.0
 41
1.0
 10
31.6966
 20
1.329599999999999
 30
0.0
 41
1.0
 10
31.6966
 20
1.329599999999999
 30
0.0
 41
1.0
 10
30.7681
 20
0.5818
 30
0.0
 41
1.0
 10
29.4167
 20
0.2216
 30
0.0
 41
1.0
 10
27.825
 20
0.8167999999999999
 30
0.0
 41
1.0
 10
27.825
 20
0.8167999999999999
 30
0.0
 41
1.0
 10
26.9095
 20
1.1143
 30
0.0
 41
1.0
 10
26.0822
 20
1.002899999999999
 30
0.0
 41
1.0
 10
25.3824
 20
0.9564999999999999
 30
0.0
 41
1.0
 10
25.3824
 20
0.9564999999999999
 30
0.0
 41
1.0
 10
24.7168
 20
0.8705
 30
0.0
 41
1.0
 10
24.0918
 20
1.1003
 30
0.0
 41
1.0
 10
23.4421
 20
1.181899999999999
 30
0.0
 41
1.0
 10
23.4421
 20
1.181899999999999
 30
0.0
 41
1.0
 10
22.806
 20
1.298599999999998
 30
0.0
 41
1.0
 10
22.1776
 20
1.4208
 30
0.0
 41
1.0
 10
21.5187
 20
1.577199999999999
 30
0.0
 41
1.0
 10
21.5187
 20
1.577199999999999
 30
0.0
 41
1.0
 10
21.1832
 20
1.6588
 30
0.0
 41
1.0
 10
20.8687
 20
1.740699999999999
 30
0.0
 41
1.0
 10
20.5176
 20
1.871899999999999
 30
0.0
 41
1.0
 10
20.5176
 20
1.871899999999999
 30
0.0
 41
1.0
 10
20.1246
 20
2.001199999999998
 30
0.0
 41
1.0
 10
19.732
 20
2.048799999999999
 30
0.0
 41
1.0
 10
19.3145
 20
2.101199999999999
 30
0.0
 41
1.0
 10
19.3145
 20
2.101199999999999
 30
0.0
 41
1.0
 10
18.8027
 20
2.153099999999998
 30
0.0
 41
1.0
 10
18.3561
 20
2.1724
 30
0.0
 41
1.0
 10
17.9568
 20
2.2056
 30
0.0
 41
1.0
 10
17.9568
 20
2.2056
 30
0.0
 41
1.0
 10
17.765
 20
2.2219
 30
0.0
 41
1.0
 10
17.5339
 20
2.250799999999999
 30
0.0
 41
1.0
 10
17.5821
 20
2.269099999999999
 30
0.0
 41
1.0
 10
17.5821
 20
2.269099999999999
 30
0.0
 41
1.0
 10
17.4834
 20
2.388199999999998
 30
0.0
 41
1.0
 10
17.3762
 20
2.5543
 30
0.0
 41
1.0
 10
17.278
 20
2.707899999999998
 30
0.0
 41
1.0
 10
17.278
 20
2.707899999999998
 30
0.0
 41
1.0
 10
17.1588
 20
2.896
 30
0.0
 41
1.0
 10
17.042
 20
3.0895
 30
0.0
 41
1.0
 10
16.9245
 20
3.289899999999998
 30
0.0
 41
1.0
 10
16.9245
 20
3.289899999999998
 30
0.0
 41
1.0
 10
16.8974
 20
3.475
 30
0.0
 41
1.0
 10
16.8537
 20
3.6804
 30
0.0
 41
1.0
 10
16.8191
 20
3.8832
 30
0.0
 41
1.0
 10
16.8191
 20
3.8832
 30
0.0
 41
1.0
 10
16.7897
 20
4.032099999999998
 30
0.0
 41
1.0
 10
16.7379
 20
3.974499999999998
 30
0.0
 41
1.0
 10
16.7071
 20
4.0983
 30
0.0
 41
1.0
 10
16.7071
 20
4.0983
 30
0.0
 41
1.0
 10
16.6411
 20
4.4836
 30
0.0
 41
1.0
 10
16.5661
 20
4.6916
 30
0.0
 41
1.0
 10
16.5005
 20
5.137199999999999
 30
0.0
 41
1.0
 10
16.5005
 20
5.137199999999999
 30
0.0
 41
1.0
 10
16.3598
 20
5.5662
 30
0.0
 41
1.0
 10
16.3152
 20
5.791
 30
0.0
 41
1.0
 10
16.2647
 20
6.2144
 30
0.0
 41
1.0
 10
16.2647
 20
6.2144
 30
0.0
 41
1.0
 10
16.208
 20
6.4691
 30
0.0
 41
1.0
 10
16.127
 20
6.5838
 30
0.0
 41
1.0
 10
16.0678
 20
6.8383
 30
0.0
 41
1.0
 10
16.0678
 20
6.8383
 30
0.0
 41
1.0
 10
16.0295
 20
7.066799999999998
 30
0.0
 41
1.0
 10
16.0251
 20
7.256599999999998
 30
0.0
 41
1.0
 10
16.0292
 20
7.4359
 30
0.0
 41
1.0
 10
16.0292
 20
7.4359
 30
0.0
 41
1.0
 10
15.9212
 20
7.6341
 30
0.0
 41
1.0
 10
15.8166
 20
7.904499999999998
 30
0.0
 41
1.0
 10
15.6971
 20
8.059699999999999
 30
0.0
 41
1.0
 10
15.6971
 20
8.059699999999999
 30
0.0
 41
1.0
 10
15.6301
 20
8.2186
 30
0.0
 41
1.0
 10
15.6485
 20
8.2893
 30
0.0
 41
1.0
 10
15.6041
 20
8.423999999999999
 30
0.0
 41
1.0
 10
15.6041
 20
8.423999999999999
 30
0.0
 41
1.0
 10
15.5495
 20
8.559599999999999
 30
0.0
 41
1.0
 10
15.4843
 20
8.573299999999997
 30
0.0
 41
1.0
 10
15.428
 20
8.7073
 30
0.0
 41
1.0
 10
15.428
 20
8.7073
 30
0.0
 41
1.0
 10
15.3856
 20
8.827199999999997
 30
0.0
 41
1.0
 10
15.3929
 20
8.896699999999997
 30
0.0
 41
1.0
 10
15.3667
 20
8.999599999999997
 30
0.0
 41
1.0
 10
15.3667
 20
8.999599999999997
 30
0.0
 41
1.0
 10
15.2131
 20
9.3925
 30
0.0
 41
1.0
 10
14.989
 20
9.8284
 30
0.0
 41
1.0
 10
14.8161
 20
10.2243
 30
0.0
 41
1.0
 10
14.8161
 20
10.2243
 30
0.0
 41
1.0
 10
14.5129
 20
10.7058
 30
0.0
 41
1.0
 10
14.1188
 20
11.3326
 30
0.0
 41
1.0
 10
13.6217
 20
11.8081
 30
0.0
 41
1.0
 10
13.6217
 20
11.8081
 30
0.0
 41
1.0
 10
13.5484
 20
11.8965
 30
0.0
 41
1.0
 10
13.4309
 20
11.992
 30
0.0
 41
1.0
 10
13.3953
 20
12.0665
 30
0.0
 41
1.0
 10
13.3953
 20
12.0665
 30
0.0
 41
1.0
 10
12.8746
 20
12.3958
 30
0.0
 41
1.0
 10
12.3818
 20
12.8079
 30
0.0
 41
1.0
 10
12.0464
 20
13.2095
 30
0.0
 41
1.0
 10
12.0464
 20
13.2095
 30
0.0
 41
1.0
 10
11.9255
 20
13.2651
 30
0.0
 41
1.0
 10
11.8676
 20
13.3394
 30
0.0
 41
1.0
 10
11.7578
 20
13.4379
 30
0.0
 41
1.0
 10
11.7578
 20
13.4379
 30
0.0
 41
1.0
 10
11.5711
 20
13.5608
 30
0.0
 41
1.0
 10
11.4577
 20
13.541
 30
0.0
 41
1.0
 10
11.2851
 20
13.6261
 30
0.0
 41
1.0
 10
11.2851
 20
13.6261
 30
0.0
 41
1.0
 10
11.1978
 20
13.6871
 30
0.0
 41
1.0
 10
11.1176
 20
13.7323
 30
0.0
 41
1.0
 10
11.0594
 20
13.7361
 30
0.0
 41
1.0
 10
11.0594
 20
13.7361
 30
0.0
 41
1.0
 10
10.995
 20
13.8247
 30
0.0
 41
1.0
 10
10.8722
 20
13.9192
 30
0.0
 41
1.0
 10
10.7712
 20
14.0023
 30
0.0
 41
1.0
 10
10.7712
 20
14.0023
 30
0.0
 41
1.0
 10
10.4336
 20
14.1203
 30
0.0
 41
1.0
 10
10.0261
 20
14.3315
 30
0.0
 41
1.0
 10
9.692899999999999
 20
14.3418
 30
0.0
 41
1.0
 10
9.692899999999999
 20
14.3418
 30
0.0
 41
1.0
 10
9.6697
 20
14.2216
 30
0.0
 41
1.0
 10
10.0093
 20
14.1709
 30
0.0
 41
1.0
 10
10.1303
 20
14.0687
 30
0.0
 41
1.0
 10
10.1303
 20
14.0687
 30
0.0
 41
1.0
 10
10.4123
 20
13.9785
 30
0.0
 41
1.0
 10
10.5078
 20
13.8748
 30
0.0
 41
1.0
 10
10.6697
 20
13.7907
 30
0.0
 41
1.0
 10
10.6697
 20
13.7907
 30
0.0
 41
1.0
 10
10.7742
 20
13.7225
 30
0.0
 41
1.0
 10
10.7653
 20
13.6524
 30
0.0
 41
1.0
 10
10.7863
 20
13.5875
 30
0.0
 41
1.0
 10
10.7863
 20
13.5875
 30
0.0
 41
1.0
 10
10.8806
 20
13.5262
 30
0.0
 41
1.0
 10
11.0075
 20
13.4549
 30
0.0
 41
1.0
 10
11.0377
 20
13.3949
 30
0.0
 41
1.0
 10
11.0377
 20
13.3949
 30
0.0
 41
1.0
 10
11.1489
 20
13.3305
 30
0.0
 41
1.0
 10
11.1962
 20
13.2704
 30
0.0
 41
1.0
 10
11.2086
 20
13.2206
 30
0.0
 41
1.0
 10
11.2086
 20
13.2206
 30
0.0
 41
1.0
 10
11.2094
 20
13.2199
 30
0.0
 41
1.0
 10
11.21
 20
13.2195
 30
0.0
 41
1.0
 10
11.2108
 20
13.2189
 30
0.0
 41
1.0
 10
11.2108
 20
13.2189
 30
0.0
 41
1.0
 10
11.2076
 20
13.1354
 30
0.0
 41
1.0
 10
11.224
 20
13.0407
 30
0.0
 41
1.0
 10
11.2614
 20
12.9343
 30
0.0
 41
1.0
 10
11.2614
 20
12.9343
 30
0.0
 41
1.0
 10
10.274
 20
12.3793
 30
0.0
 41
1.0
 10
8.3231
 20
12.5543
 30
0.0
 41
1.0
 10
6.8197
 20
12.6482
 30
0.0
 41
1.0
 10
6.8197
 20
12.6482
 30
0.0
 41
1.0
 10
7.7098
 20
11.9559
 30
0.0
 41
1.0
 10
10.1784
 20
11.8954
 30
0.0
 41
1.0
 10
11.5924
 20
12.3429
 30
0.0
 41
1.0
 10
11.5924
 20
12.3429
 30
0.0
 41
1.0
 10
11.6886
 20
12.2083
 30
0.0
 41
1.0
 10
11.8018
 20
12.0642
 30
0.0
 41
1.0
 10
11.9343
 20
11.9097
 30
0.0
 41
1.0
 10
11.9343
 20
11.9097
 30
0.0
 41
1.0
 10
12.0845
 20
11.7346
 30
0.0
 41
1.0
 10
12.2862
 20
11.5513
 30
0.0
 41
1.0
 10
12.4814
 20
11.3742
 30
0.0
 41
1.0
 10
12.4814
 20
11.3742
 30
0.0
 41
1.0
 10
12.8301
 20
11.0574
 30
0.0
 41
1.0
 10
13.1596
 20
10.7582
 30
0.0
 41
1.0
 10
13.1521
 20
10.5485
 30
0.0
 41
1.0
 10
13.1521
 20
10.5485
 30
0.0
 41
1.0
 10
13.1503
 20
10.4929
 30
0.0
 41
1.0
 10
13.1247
 20
10.4465
 30
0.0
 41
1.0
 10
13.074
 20
10.4066
 30
0.0
 41
1.0
 10
13.074
 20
10.4066
 30
0.0
 41
1.0
 10
13.028
 20
10.3706
 30
0.0
 41
1.0
 10
12.9784
 20
10.3299
 30
0.0
 41
1.0
 10
12.9255
 20
10.2867
 30
0.0
 41
1.0
 10
12.9255
 20
10.2867
 30
0.0
 41
1.0
 10
12.5527
 20
9.981999999999999
 30
0.0
 41
1.0
 10
11.9888
 20
9.520799999999999
 30
0.0
 41
1.0
 10
11.3737
 20
9.568599999999999
 30
0.0
 41
1.0
 10
11.3737
 20
9.568599999999999
 30
0.0
 41
1.0
 10
11.3737
 20
9.568599999999999
 30
0.0
 41
1.0
 10
11.3712
 20
9.5485
 30
0.0
 41
1.0
 10
11.3712
 20
9.5485
 30
0.0
 41
1.0
 10
11.3712
 20
9.5485
 30
0.0
 41
1.0
 10
11.5557
 20
9.5164
 30
0.0
 41
1.0
 10
11.7426
 20
9.5007
 30
0.0
 41
1.0
 10
11.9257
 20
9.5007
 30
0.0
 41
1.0
 10
11.9257
 20
9.5007
 30
0.0
 41
1.0
 10
12.3446
 20
9.5007
 30
0.0
 41
1.0
 10
12.745
 20
9.5828
 30
0.0
 41
1.0
 10
13.0578
 20
9.7392
 30
0.0
 41
1.0
 10
13.0578
 20
9.7392
 30
0.0
 41
1.0
 10
13.4027
 20
9.9115
 30
0.0
 41
1.0
 10
13.8533
 20
10.0681
 30
0.0
 41
1.0
 10
14.2136
 20
10.0673
 30
0.0
 41
1.0
 10
14.2136
 20
10.0673
 30
0.0
 41
1.0
 10
14.2271
 20
10.0403
 30
0.0
 41
1.0
 10
14.2404
 20
10.0128
 30
0.0
 41
1.0
 10
14.2533
 20
9.983399999999999
 30
0.0
 41
1.0
 10
14.2533
 20
9.983399999999999
 30
0.0
 41
1.0
 10
14.3775
 20
9.769099999999999
 30
0.0
 41
1.0
 10
14.5798
 20
9.4786
 30
0.0
 41
1.0
 10
14.6235
 20
9.2909
 30
0.0
 41
1.0
 10
14.6235
 20
9.2909
 30
0.0
 41
1.0
 10
14.8059
 20
9.061299999999999
 30
0.0
 41
1.0
 10
14.9471
 20
8.671099999999999
 30
0.0
 41
1.0
 10
15.0419
 20
8.3077
 30
0.0
 41
1.0
 10
15.0419
 20
8.3077
 30
0.0
 41
1.0
 10
15.1448
 20
8.1178
 30
0.0
 41
1.0
 10
15.1878
 20
7.883899999999998
 30
0.0
 41
1.0
 10
15.2693
 20
7.625799999999999
 30
0.0
 41
1.0
 10
15.2693
 20
7.625799999999999
 30
0.0
 41
1.0
 10
15.3779
 20
7.282799999999999
 30
0.0
 41
1.0
 10
15.5374
 20
6.8444
 30
0.0
 41
1.0
 10
15.5945
 20
6.504999999999999
 30
0.0
 41
1.0
 10
15.5945
 20
6.504999999999999
 30
0.0
 41
1.0
 10
15.6292
 20
6.394199999999998
 30
0.0
 41
1.0
 10
15.6567
 20
6.2469
 30
0.0
 41
1.0
 10
15.7011
 20
6.1996
 30
0.0
 41
1.0
 10
15.7011
 20
6.1996
 30
0.0
 41
1.0
 10
15.7683
 20
5.641899999999998
 30
0.0
 41
1.0
 10
15.9706
 20
5.062899999999999
 30
0.0
 41
1.0
 10
16.21512470326864
 20
4.106893767918904
 30
0.0
 41
1.0
 10
16.21512470326864
 20
4.106893767918906
 30
0.0
 41
1.0
 10
15.8261
 20
4.234099999999998
 30
0.0
 41
1.0
 10
15.5972
 20
4.3089
 30
0.0
 41
1.0
 10
15.3528
 20
4.386199999999998
 30
0.0
 41
1.0
 10
15.3528
 20
4.386199999999998
 30
0.0
 41
1.0
 10
14.4936
 20
4.661
 30
0.0
 41
1.0
 10
13.7154
 20
4.870099999999998
 30
0.0
 41
1.0
 10
12.9938
 20
5.063799999999998
 30
0.0
 41
1.0
 10
12.9938
 20
5.063799999999998
 30
0.0
 41
1.0
 10
12.2832
 20
5.2571
 30
0.0
 41
1.0
 10
11.5439
 20
5.3883
 30
0.0
 41
1.0
 10
11.3072
 20
5.75
 30
0.0
 41
1.0
 10
11.3072
 20
5.75
 30
0.0
 41
1.0
 10
10.9599
 20
6.167999999999998
 30
0.0
 41
1.0
 10
11.0963
 20
7.350299999999998
 30
0.0
 41
1.0
 10
10.9386
 20
8.2629
 30
0.0
 41
1.0
 10
10.9386
 20
8.2629
 30
0.0
 41
1.0
 10
10.8763
 20
8.743
 30
0.0
 41
1.0
 10
10.7812
 20
9.2096
 30
0.0
 41
1.0
 10
10.6673
 20
9.638199999999999
 30
0.0
 41
1.0
 10
10.6673
 20
9.638199999999999
 30
0.0
 41
1.0
 10
10.554
 20
10.0944
 30
0.0
 41
1.0
 10
10.3115
 20
10.5229
 30
0.0
 41
1.0
 10
9.9601
 20
10.7702
 30
0.0
 41
1.0
 10
9.9601
 20
10.7702
 30
0.0
 41
1.0
 10
9.9601
 20
10.7702
 30
0.0
 41
1.0
 10
9.834099999999999
 20
10.8521
 30
0.0
 41
1.0
 10
9.834099999999999
 20
10.8521
 30
0.0
 41
1.0
 10
9.834099999999999
 20
10.8521
 30
0.0
 41
1.0
 10
9.834099999999999
 20
10.8521
 30
0.0
 41
1.0
 10
9.764599999999999
 20
10.8877
 30
0.0
 41
1.0
 10
9.764599999999999
 20
10.8877
 30
0.0
 41
1.0
 10
9.764599999999999
 20
10.8877
 30
0.0
 41
1.0
 10
9.7553
 20
10.8929
 30
0.0
 41
1.0
 10
9.7352
 20
10.9007
 30
0.0
 41
1.0
 10
9.7202
 20
10.9067
 30
0.0
 41
1.0
 10
9.7202
 20
10.9067
 30
0.0
 41
1.0
 10
9.7202
 20
10.9067
 30
0.0
 41
1.0
 10
9.714199999999999
 20
10.9089
 30
0.0
 41
1.0
 10
9.714199999999999
 20
10.9089
 30
0.0
 41
1.0
 10
9.714199999999999
 20
10.9089
 30
0.0
 41
1.0
 10
9.714199999999999
 20
10.9089
 30
0.0
 41
1.0
 10
9.7126
 20
10.9096
 30
0.0
 41
1.0
 10
9.7126
 20
10.9096
 30
0.0
 41
1.0
 10
9.7126
 20
10.9096
 30
0.0
 41
1.0
 10
9.746299999999999
 20
10.9107
 30
0.0
 41
1.0
 10
9.4137
 20
10.9027
 30
0.0
 41
1.0
 10
9.5545
 20
10.9061
 30
0.0
 41
1.0
 10
9.5545
 20
10.9061
 30
0.0
 41
1.0
 10
9.5545
 20
10.9061
 30
0.0
 41
1.0
 10
9.554
 20
10.9059
 30
0.0
 41
1.0
 10
9.554
 20
10.9059
 30
0.0
 41
1.0
 10
9.554
 20
10.9059
 30
0.0
 41
1.0
 10
9.554
 20
10.9059
 30
0.0
 41
1.0
 10
9.5524
 20
10.9053
 30
0.0
 41
1.0
 10
9.5524
 20
10.9053
 30
0.0
 41
1.0
 10
9.5524
 20
10.9053
 30
0.0
 41
1.0
 10
9.5524
 20
10.9053
 30
0.0
 41
1.0
 10
9.542699999999999
 20
10.9018
 30
0.0
 41
1.0
 10
9.542699999999999
 20
10.9018
 30
0.0
 41
1.0
 10
9.542699999999999
 20
10.9018
 30
0.0
 41
1.0
 10
9.487899999999999
 20
10.8824
 30
0.0
 41
1.0
 10
9.421099999999999
 20
10.8669
 30
0.0
 41
1.0
 10
9.359899999999999
 20
10.8553
 30
0.0
 41
1.0
 10
9.359899999999999
 20
10.8553
 30
0.0
 41
1.0
 10
9.235099999999999
 20
10.8318
 30
0.0
 41
1.0
 10
9.1149
 20
10.821
 30
0.0
 41
1.0
 10
9.0013
 20
10.8184
 30
0.0
 41
1.0
 10
9.0013
 20
10.8184
 30
0.0
 41
1.0
 10
8.7736
 20
10.8135
 30
0.0
 41
1.0
 10
8.5721
 20
10.8392
 30
0.0
 41
1.0
 10
8.3809
 20
10.8764
 30
0.0
 41
1.0
 10
8.3809
 20
10.8764
 30
0.0
 41
1.0
 10
7.9988
 20
10.959
 30
0.0
 41
1.0
 10
7.652099999999999
 20
11.0838
 30
0.0
 41
1.0
 10
7.195299999999998
 20
11.3237
 30
0.0
 41
1.0
 10
7.195299999999998
 20
11.3237
 30
0.0
 41
1.0
 10
6.2769
 20
11.8602
 30
0.0
 41
1.0
 10
6.0449
 20
12.0148
 30
0.0
 41
1.0
 10
5.275699999999998
 20
12.7901
 30
0.0
 41
1.0
 10
5.275699999999998
 20
12.7901
 30
0.0
 41
1.0
 10
4.640299999999998
 20
13.5117
 30
0.0
 41
1.0
 10
4.400599999999998
 20
13.9195
 30
0.0
 41
1.0
 10
3.975499999999998
 20
14.586
 30
0.0
 41
1.0
 10
3.975499999999998
 20
14.586
 30
0.0
 41
1.0
 10
2.2158
 20
17.2152
 30
0.0
 41
1.0
 10
1.1429
 20
20.9397
 30
0.0
 41
1.0
 10
1.530899999999999
 20
24.1146
 30
0.0
 41
1.0
 10
1.530899999999999
 20
24.1146
 30
0.0
 41
1.0
 10
1.696999999999999
 20
26.2081
 30
0.0
 41
1.0
 10
2.5167
 20
28.5813
 30
0.0
 41
1.0
 10
4.173899999999998
 20
30.4654
 30
0.0
 41
1.0
 10
4.173899999999998
 20
30.4654
 30
0.0
 41
1.0
 10
5.801
 20
32.3654
 30
0.0
 41
1.0
 10
8.128099999999998
 20
33.7398
 30
0.0
 41
1.0
 10
10.5092
 20
34.53050000000001
 30
0.0
 41
1.0
 10
10.5092
 20
34.53050000000001
 30
0.0
 41
1.0
 10
11.3081
 20
34.7925
 30
0.0
 41
1.0
 10
12.3921
 20
35.0509
 30
0.0
 41
1.0
 10
12.954
 20
35.1033
 30
0.0
 41
1.0
 10
12.954
 20
35.1033
 30
0.0
 41
1.0
 10
17.2123
 20
35.9725
 30
0.0
 41
1.0
 10
22.8287
 20
34.7853
 30
0.0
 41
1.0
 10
25.5981
 20
32.172
 30
0.0
 41
1.0
 10
25.5981
 20
32.172
 30
0.0
 41
1.0
 10
26.2092
 20
31.5195
 30
0.0
 41
1.0
 10
26.5764
 20
30.8146
 30
0.0
 41
1.0
 10
27.2105
 20
29.8949
 30
0.0
 41
1.0
 10
27.2105
 20
29.8949
 30
0.0
 41
1.0
 10
28.2076
 20
28.4993
 30
0.0
 41
1.0
 10
28.5441
 20
28.0324
 30
0.0
 41
1.0
 10
29.5944
 20
26.975
 30
0.0
 41
1.0
 10
29.5944
 20
26.975
 30
0.0
 41
1.0
 10
29.6321
 20
26.9351
 30
0.0
 41
1.0
 10
29.6718
 20
26.8993
 30
0.0
 41
1.0
 10
29.7125
 20
26.8664
 30
0.0
 41
1.0
 10
29.7125
 20
26.8664
 30
0.0
 41
1.0
 10
29.678
 20
26.8823
 30
0.0
 41
1.0
 10
29.6385
 20
26.8961
 30
0.0
 41
1.0
 10
29.6049
 20
26.9125
 30
0.0
 41
1.0
 10
29.6049
 20
26.9125
 30
0.0
 41
1.0
 10
29.5484
 20
26.96
 30
0.0
 41
1.0
 10
29.4688
 20
26.9946
 30
0.0
 41
1.0
 10
29.3912
 20
27.0283
 30
0.0
 41
1.0
 10
29.3912
 20
27.0283
 30
0.0
 41
1.0
 10
29.3453
 20
27.0477
 30
0.0
 41
1.0
 10
29.3504
 20
27.0115
 30
0.0
 41
1.0
 10
29.3111
 20
27.0237
 30
0.0
 41
1.0
 10
29.3111
 20
27.0237
 30
0.0
 41
1.0
 10
29.1944
 20
27.076
 30
0.0
 41
1.0
 10
29.1206
 20
27.0735
 30
0.0
 41
1.0
 10
28.9809
 20
27.121
 30
0.0
 41
1.0
 10
28.9809
 20
27.121
 30
0.0
 41
1.0
 10
28.8332
 20
27.1251
 30
0.0
 41
1.0
 10
28.76
 20
27.133
 30
0.0
 41
1.0
 10
28.6217
 20
27.1665
 30
0.0
 41
1.0
 10
28.6217
 20
27.1665
 30
0.0
 41
1.0
 10
28.5343
 20
27.1677
 30
0.0
 41
1.0
 10
28.4916
 20
27.1415
 30
0.0
 41
1.0
 10
28.4055
 20
27.1424
 30
0.0
 41
1.0
 10
28.4055
 20
27.1424
 30
0.0
 41
1.0
 10
28.3284
 20
27.1444
 30
0.0
 41
1.0
 10
28.2636
 20
27.1551
 30
0.0
 41
1.0
 10
28.2
 20
27.1724
 30
0.0
 41
1.0
 10
28.2
 20
27.1724
 30
0.0
 41
1.0
 10
28.1296
 20
27.1422
 30
0.0
 41
1.0
 10
28.038
 20
27.0891
 30
0.0
 41
1.0
 10
27.9902
 20
27.0423
 30
0.0
 41
1.0
 10
27.9902
 20
27.0423
 30
0.0
 41
1.0
 10
27.9375
 20
27.0185
 30
0.0
 41
1.0
 10
27.9109
 20
27.0286
 30
0.0
 41
1.0
 10
27.868
 20
27.0047
 30
0.0
 41
1.0
 10
27.868
 20
27.0047
 30
0.0
 41
1.0
 10
27.8253
 20
26.9777
 30
0.0
 41
1.0
 10
27.828
 20
26.9481
 30
0.0
 41
1.0
 10
27.7873
 20
26.9218
 30
0.0
 41
1.0
 10
27.7873
 20
26.9218
 30
0.0
 41
1.0
 10
27.7492
 20
26.9025
 30
0.0
 41
1.0
 10
27.7213
 20
26.9071
 30
0.0
 41
1.0
 10
27.6906
 20
26.8884
 30
0.0
 41
1.0
 10
27.6906
 20
26.8884
 30
0.0
 41
1.0
 10
27.5704
 20
26.8056
 30
0.0
 41
1.0
 10
27.4683
 20
26.6791
 30
0.0
 41
1.0
 10
27.3617
 20
26.5782
 30
0.0
 41
1.0
 10
27.3617
 20
26.5782
 30
0.0
 41
1.0
 10
27.2716
 20
26.4124
 30
0.0
 41
1.0
 10
27.1447
 20
26.2084
 30
0.0
 41
1.0
 10
27.0925
 20
25.9966
 30
0.0
 41
1.0
 10
27.0925
 20
25.9966
 30
0.0
 41
1.0
 10
27.0781
 20
25.9632
 30
0.0
 41
1.0
 10
27.0696
 20
25.9162
 30
0.0
 41
1.0
 10
27.0492
 20
25.8967
 30
0.0
 41
1.0
 10
27.0492
 20
25.8967
 30
0.0
 41
1.0
 10
27.0409
 20
25.7033
 30
0.0
 41
1.0
 10
27.0021
 20
25.4943
 30
0.0
 41
1.0
 10
26.9341
 20
25.3376
 30
0.0
 41
1.0
 10
26.9341
 20
25.3376
 30
0.0
 41
1.0
 10
26.9473
 20
25.2942
 30
0.0
 41
1.0
 10
26.9342
 20
25.2664
 30
0.0
 41
1.0
 10
26.9268
 20
25.2199
 30
0.0
 41
1.0
 10
26.9268
 20
25.2199
 30
0.0
 41
1.0
 10
26.9312
 20
25.1484
 30
0.0
 41
1.0
 10
26.9721
 20
25.1206
 30
0.0
 41
1.0
 10
26.9854
 20
25.0605
 30
0.0
 41
1.0
 10
26.9854
 20
25.0605
 30
0.0
 41
1.0
 10
26.9843
 20
25.0274
 30
0.0
 41
1.0
 10
26.9871
 20
24.9988
 30
0.0
 41
1.0
 10
27.0001
 20
24.9826
 30
0.0
 41
1.0
 10
27.0001
 20
24.9826
 30
0.0
 41
1.0
 10
26.9805
 20
24.9518
 30
0.0
 41
1.0
 10
26.9741
 20
24.9053
 30
0.0
 41
1.0
 10
26.9604
 20
24.8673
 30
0.0
 41
1.0
 10
26.9604
 20
24.8673
 30
0.0
 41
1.0
 10
26.9928
 20
24.7593
 30
0.0
 41
1.0
 10
26.9523
 20
24.6215
 30
0.0
 41
1.0
 10
26.9889
 20
24.5201
 30
0.0
 41
1.0
 10
26.9889
 20
24.5201
 30
0.0
 41
1.0
 10
27.0502
 20
24.5223
 30
0.0
 41
1.0
 10
27.0303
 20
24.6291
 30
0.0
 41
1.0
 10
27.0575
 20
24.6746
 30
0.0
 41
1.0
 10
27.0575
 20
24.6746
 30
0.0
 41
1.0
 10
27.0531
 20
24.7676
 30
0.0
 41
1.0
 10
27.0787
 20
24.8074
 30
0.0
 41
1.0
 10
27.0773
 20
24.8657
 30
0.0
 41
1.0
 10
27.0773
 20
24.8657
 30
0.0
 41
1.0
 10
27.0832
 20
24.9049
 30
0.0
 41
1.0
 10
27.1127
 20
24.9124
 30
0.0
 41
1.0
 10
27.1359
 20
24.9281
 30
0.0
 41
1.0
 10
27.1359
 20
24.9281
 30
0.0
 41
1.0
 10
27.1361
 20
24.9646
 30
0.0
 41
1.0
 10
27.1338
 20
25.0108
 30
0.0
 41
1.0
 10
27.1497
 20
25.0285
 30
0.0
 41
1.0
 10
27.1497
 20
25.0285
 30
0.0
 41
1.0
 10
27.1465
 20
25.0694
 30
0.0
 41
1.0
 10
27.1564
 20
25.0916
 30
0.0
 41
1.0
 10
27.1737
 20
25.1029
 30
0.0
 41
1.0
 10
27.1737
 20
25.1029
 30
0.0
 41
1.0
 10
27.1795
 20
25.1329
 30
0.0
 41
1.0
 10
27.1575
 20
25.1311
 30
0.0
 41
1.0
 10
27.1677
 20
25.1661
 30
0.0
 41
1.0
 10
27.1677
 20
25.1661
 30
0.0
 41
1.0
 10
27.1901
 20
25.2153
 30
0.0
 41
1.0
 10
27.1824
 20
25.3088
 30
0.0
 41
1.0
 10
27.2261
 20
25.3253
 30
0.0
 41
1.0
 10
27.2261
 20
25.3253
 30
0.0
 41
1.0
 10
27.2152
 20
25.3413
 30
0.0
 41
1.0
 10
27.2185
 20
25.3704
 30
0.0
 41
1.0
 10
27.2243
 20
25.4005
 30
0.0
 41
1.0
 10
27.2243
 20
25.4005
 30
0.0
 41
1.0
 10
27.2327
 20
25.4367
 30
0.0
 41
1.0
 10
27.2482
 20
25.4611
 30
0.0
 41
1.0
 10
27.265
 20
25.483
 30
0.0
 41
1.0
 10
27.265
 20
25.483
 30
0.0
 41
1.0
 10
27.265
 20
25.483
 30
0.0
 41
1.0
 10
27.278
 20
25.5809
 30
0.0
 41
1.0
 10
27.278
 20
25.5809
 30
0.0
 41
1.0
 10
27.278
 20
25.5809
 30
0.0
 41
1.0
 10
27.2809
 20
25.6315
 30
0.0
 41
1.0
 10
27.324
 20
25.6123
 30
0.0
 41
1.0
 10
27.3358
 20
25.6465
 30
0.0
 41
1.0
 10
27.3358
 20
25.6465
 30
0.0
 41
1.0
 10
27.352
 20
25.8551
 30
0.0
 41
1.0
 10
27.4229
 20
26.0062
 30
0.0
 41
1.0
 10
27.4693
 20
26.1811
 30
0.0
 41
1.0
 10
27.4693
 20
26.1811
 30
0.0
 41
1.0
 10
27.521
 20
26.2636
 30
0.0
 41
1.0
 10
27.5462
 20
26.3201
 30
0.0
 41
1.0
 10
27.6014
 20
26.3874
 30
0.0
 41
1.0
 10
27.6014
 20
26.3874
 30
0.0
 41
1.0
 10
27.6426
 20
26.4454
 30
0.0
 41
1.0
 10
27.6927
 20
26.534
 30
0.0
 41
1.0
 10
27.7393
 20
26.5636
 30
0.0
 41
1.0
 10
27.7393
 20
26.5636
 30
0.0
 41
1.0
 10
27.7785
 20
26.636
 30
0.0
 41
1.0
 10
27.8726
 20
26.7128
 30
0.0
 41
1.0
 10
27.9755
 20
26.7394
 30
0.0
 41
1.0
 10
27.9755
 20
26.7394
 30
0.0
 41
1.0
 10
28.0173
 20
26.7879
 30
0.0
 41
1.0
 10
28.0888
 20
26.7907
 30
0.0
 41
1.0
 10
28.1599
 20
26.8146
 30
0.0
 41
1.0
 10
28.1599
 20
26.8146
 30
0.0
 41
1.0
 10
28.2538
 20
26.8462
 30
0.0
 41
1.0
 10
28.3855
 20
26.8867
 30
0.0
 41
1.0
 10
28.4868
 20
26.8738
 30
0.0
 41
1.0
 10
28.4868
 20
26.8738
 30
0.0
 41
1.0
 10
28.5207
 20
26.8774
 30
0.0
 41
1.0
 10
28.5642
 20
26.874
 30
0.0
 41
1.0
 10
28.5809
 20
26.8904
 30
0.0
 41
1.0
 10
28.5809
 20
26.8904
 30
0.0
 41
1.0
 10
28.7435
 20
26.856
 30
0.0
 41
1.0
 10
28.926
 20
26.8659
 30
0.0
 41
1.0
 10
29.1008
 20
26.831
 30
0.0
 41
1.0
 10
29.1008
 20
26.831
 30
0.0
 41
1.0
 10
29.1141
 20
26.8501
 30
0.0
 41
1.0
 10
29.1568
 20
26.8409
 30
0.0
 41
1.0
 10
29.1787
 20
26.8501
 30
0.0
 41
1.0
 10
29.1787
 20
26.8501
 30
0.0
 41
1.0
 10
29.2313
 20
26.8486
 30
0.0
 41
1.0
 10
29.2335
 20
26.8203
 30
0.0
 41
1.0
 10
29.2736
 20
26.8123
 30
0.0
 41
1.0
 10
29.2736
 20
26.8123
 30
0.0
 41
1.0
 10
29.295
 20
26.8574
 30
0.0
 41
1.0
 10
29.365
 20
26.8479
 30
0.0
 41
1.0
 10
29.4223
 20
26.8536
 30
0.0
 41
1.0
 10
29.4223
 20
26.8536
 30
0.0
 41
1.0
 10
29.5078
 20
26.8281
 30
0.0
 41
1.0
 10
29.5566
 20
26.8261
 30
0.0
 41
1.0
 10
29.6133
 20
26.78
 30
0.0
 41
1.0
 10
29.6133
 20
26.78
 30
0.0
 41
1.0
 10
29.6436
 20
26.771
 30
0.0
 41
1.0
 10
29.6553
 20
26.7853
 30
0.0
 41
1.0
 10
29.6694
 20
26.7966
 30
0.0
 41
1.0
 10
29.6694
 20
26.7966
 30
0.0
 41
1.0
 10
29.6886
 20
26.774
 30
0.0
 41
1.0
 10
29.7492
 20
26.7699
 30
0.0
 41
1.0
 10
29.7906
 20
26.7571
 30
0.0
 41
1.0
 10
29.7906
 20
26.7571
 30
0.0
 41
1.0
 10
29.797
 20
26.7787
 30
0.0
 41
1.0
 10
29.7941
 20
26.7963
 30
0.0
 41
1.0
 10
29.7855
 20
26.8114
 30
0.0
 41
1.0
 10
29.7855
 20
26.8114
 30
0.0
 41
1.0
 10
30.0689
 20
26.6125
 30
0.0
 41
1.0
 10
30.3862
 20
26.5403
 30
0.0
 41
1.0
 10
30.5165
 20
26.388
 30
0.0
 41
1.0
 10
30.5165
 20
26.388
 30
0.0
 41
1.0
 10
30.7161
 20
26.2117
 30
0.0
 41
1.0
 10
30.7283
 20
25.9662
 30
0.0
 41
1.0
 10
30.7381
 20
25.7872
 30
0.0
 41
1.0
 10
30.7381
 20
25.7872
 30
0.0
 41
1.0
 10
30.5766
 20
24.972
 30
0.0
 41
1.0
 10
30.8973
 20
23.791
 30
0.0
 41
1.0
 10
31.2793
 20
22.8986
 30
0.0
 41
1.0
 10
31.2793
 20
22.8986
 30
0.0
 41
1.0
 10
31.4335
 20
22.5982
 30
0.0
 41
1.0
 10
31.6144
 20
22.2925
 30
0.0
 41
1.0
 10
31.857
 20
22.0122
 30
0.0
 41
1.0
 10
31.857
 20
22.0122
 30
0.0
 41
1.0
 10
32.1121
 20
21.7153
 30
0.0
 41
1.0
 10
32.416
 20
21.5409
 30
0.0
 41
1.0
 10
32.6168
 20
21.2662
 30
0.0
 41
1.0
 10
32.6168
 20
21.2662
 30
0.0
 41
1.0
 10
33.0501
 20
20.7333
 30
0.0
 41
1.0
 10
33.2754
 20
19.9904
 30
0.0
 41
1.0
 10
33.146
 20
19.2971
 30
0.0
 41
1.0
 10
33.146
 20
19.2971
 30
0.0
 41
1.0
 10
33.0547
 20
18.5829
 30
0.0
 41
1.0
 10
32.4775
 20
18.0854
 30
0.0
 41
1.0
 10
32.0738
 20
17.4729
 30
0.0
 41
1.0
 10
32.0738
 20
17.4729
 30
0.0
 41
1.0
 10
31.8826
 20
17.1639
 30
0.0
 41
1.0
 10
31.6875
 20
16.8491
 30
0.0
 41
1.0
 10
31.6305
 20
16.4812
 30
0.0
 41
1.0
 10
31.6305
 20
16.4812
 30
0.0
 41
1.0
 10
31.5726
 20
16.1123
 30
0.0
 41
1.0
 10
31.6844
 20
15.7628
 30
0.0
 41
1.0
 10
31.8284
 20
15.4769
 30
0.0
 41
1.0
 10
31.8284
 20
15.4769
 30
0.0
 41
1.0
 10
31.8912
 20
15.5214
 30
0.0
 41
1.0
 10
31.4661
 20
16.25
 30
0.0
 41
1.0
 10
31.9362
 20
16.9995
 30
0.0
 41
1.0
 10
31.9362
 20
16.9995
 30
0.0
 41
1.0
 10
32.3191
 20
17.725
 30
0.0
 41
1.0
 10
33.0676
 20
18.3645
 30
0.0
 41
1.0
 10
33.2334
 20
18.947
 30
0.0
 41
1.0
 10
33.2334
 20
18.947
 30
0.0
 41
1.0
 10
33.5592
 20
20.0887
 30
0.0
 41
1.0
 10
33.1138
 20
20.9605
 30
0.0
 41
1.0
 10
32.6635
 20
21.503
 30
0.0
 41
1.0
 10
32.6635
 20
21.503
 30
0.0
 41
1.0
 10
32.1151
 20
21.9986
 30
0.0
 41
1.0
 10
31.7096
 20
22.4412
 30
0.0
 41
1.0
 10
31.433
 20
23.1235
 30
0.0
 41
1.0
 10
31.433
 20
23.1235
 30
0.0
 41
1.0
 10
31.0678
 20
24.0312
 30
0.0
 41
1.0
 10
31.1103
 20
24.2916
 30
0.0
 41
1.0
 10
31.0592
 20
24.7102
 30
0.0
 41
1.0
 10
31.0592
 20
24.7102
 30
0.0
 41
1.0
 10
30.9245
 20
25.1597
 30
0.0
 41
1.0
 10
31.0467
 20
25.589
 30
0.0
 41
1.0
 10
30.9837
 20
26.1431
 30
0.0
 41
1.0
 10
30.9837
 20
26.1431
 30
0.0
 41
1.0
 10
30.8493
 20
26.7295
 30
0.0
 41
1.0
 10
30.2823
 20
26.8771
 30
0.0
 41
1.0
 10
30.1328
 20
26.9838
 30
0.0
 41
1.0
 10
30.1328
 20
26.9838
 30
0.0
 41
1.0
 10
29.3841
 20
27.5131
 30
0.0
 41
1.0
 10
29.0841
 20
28.106
 30
0.0
 41
1.0
 10
28.91
 20
28.3498
 30
0.0
 41
1.0
 10
28.91
 20
28.3498
 30
0.0
 41
1.0
 10
28.4661
 20
28.9708
 30
0.0
 41
1.0
 10
28.4888
 20
28.8655
 30
0.0
 41
1.0
 10
27.9893
 20
29.6175
 30
0.0
 41
1.0
 10
27.9893
 20
29.6175
 30
0.0
 41
1.0
 10
27.2826
 20
30.6769
 30
0.0
 41
1.0
 10
26.0515
 20
32.698
 30
0.0
 41
1.0
 10
25.4938
 20
33.0407
 30
0.0
 41
1.0
 10
25.4938
 20
33.0407
 30
0.0
 41
1.0
 10
25.1856
 20
33.2575
 30
0.0
 41
1.0
 10
24.5505
 20
33.6864
 30
0.0
 41
1.0
 10
23.8363
 20
34.0433
 30
0.0
 41
1.0
 10
23.8363
 20
34.0433
 30
0.0
 41
1.0
 10
22.9748
 20
34.4758
 30
0.0
 41
1.0
 10
22.3351
 20
34.7356
 30
0.0
 41
1.0
 10
21.7399
 20
34.9658
 30
0.0
 41
1.0
 10
21.7399
 20
34.9658
 30
0.0
 41
1.0
 10
20.925
 20
35.2348
 30
0.0
 41
1.0
 10
20.0906
 20
35.4458
 30
0.0
 41
1.0
 10
19.2469
 20
35.6007
 30
0.0
 41
1.0
 10
19.2469
 20
35.6007
 30
0.0
 41
1.0
 10
17.9607
 20
35.8048
 30
0.0
 41
1.0
 10
18.2311
 20
35.8463
 30
0.0
 41
1.0
 10
17.2837
 20
35.954
 30
0.0
 41
1.0
 10
17.2837
 20
35.954
 30
0.0
 41
1.0
 10
14.5422
 20
36.1395
 30
0.0
 41
1.0
 10
12.0275
 20
35.7583
 30
0.0
 41
1.0
 10
9.765299999999999
 20
34.92
 30
0.0
 41
1.0
 10
9.765299999999999
 20
34.92
 30
0.0
 41
1.0
 10
7.5189
 20
34.0691
 30
0.0
 41
1.0
 10
5.442099999999999
 20
32.818
 30
0.0
 41
1.0
 10
3.822099999999998
 20
30.9348
 30
0.0
 41
1.0
 10
3.822099999999998
 20
30.9348
 30
0.0
 41
1.0
 10
2.084499999999998
 20
28.9116
 30
0.0
 41
1.0
 10
1.4204
 20
27.1547
 30
0.0
 41
1.0
 10
0.9971999999999999
 20
24.7778
 30
0.0
 41
1.0
 10
0.9971999999999999
 20
24.7778
 30
0.0
 41
1.0
 10
0.6333000000000001
 20
22.7127
 30
0.0
 41
1.0
 10
1.1059
 20
19.8204
 30
0.0
 41
1.0
 10
1.581099999999999
 20
18.3588
 30
0.0
 41
1.0
 10
2.351399999999999
 20
16.1682
 30
0.0
 41
1.0
 10
3.831799999999999
 20
13.0479
 30
0.0
 41
1.0
 10
6.369299999999999
 20
11.1595
 30
0.0
 41
1.0
 10
6.369299999999999
 20
11.1595
 30
0.0
 41
1.0
 10
7.1124
 20
10.6822
 30
0.0
 41
1.0
 10
8.0166
 20
10.2585
 30
0.0
 41
1.0
 10
9.0746
 20
10.2956
 30
0.0
 41
1.0
 10
9.0746
 20
10.2956
 30
0.0
 41
1.0
 10
9.2057
 20
10.3009
 30
0.0
 41
1.0
 10
9.3383
 20
10.315
 30
0.0
 41
1.0
 10
9.473499999999999
 20
10.3411
 30
0.0
 41
1.0
 10
9.473499999999999
 20
10.3411
 30
0.0
 41
1.0
 10
9.491099999999999
 20
10.3444
 30
0.0
 41
1.0
 10
9.509
 20
10.3492
 30
0.0
 41
1.0
 10
9.526699999999999
 20
10.3531
 30
0.0
 41
1.0
 10
9.526699999999999
 20
10.3531
 30
0.0
 41
1.0
 10
9.526699999999999
 20
10.3531
 30
0.0
 41
1.0
 10
9.702799999999999
 20
10.289
 30
0.0
 41
1.0
 10
9.702799999999999
 20
10.289
 30
0.0
 41
1.0
 10
9.702799999999999
 20
10.289
 30
0.0
 41
1.0
 10
9.800399999999999
 20
10.1964
 30
0.0
 41
1.0
 10
9.887299999999999
 20
10.0727
 30
0.0
 41
1.0
 10
9.9534
 20
9.934799999999999
 30
0.0
 41
1.0
 10
9.9534
 20
9.934799999999999
 30
0.0
 41
1.0
 10
10.1246
 20
9.568799999999999
 30
0.0
 41
1.0
 10
10.2094
 20
9.0219
 30
0.0
 41
1.0
 10
10.2891
 20
8.5182
 30
0.0
 41
1.0
 10
10.2891
 20
8.5182
 30
0.0
 41
1.0
 10
10.3995
 20
7.824799999999998
 30
0.0
 41
1.0
 10
10.3888
 20
7.102999999999998
 30
0.0
 41
1.0
 10
10.4547
 20
6.2693
 30
0.0
 41
1.0
 10
10.4547
 20
6.2693
 30
0.0
 41
1.0
 10
10.4758
 20
5.8691
 30
0.0
 41
1.0
 10
10.6759
 20
5.2925
 30
0.0
 41
1.0
 10
11.1266
 20
5.034299999999999
 30
0.0
 41
1.0
 10
11.1266
 20
5.034299999999999
 30
0.0
 41
1.0
 10
11.537
 20
4.776399999999998
 30
0.0
 41
1.0
 10
11.9778
 20
4.698299999999998
 30
0.0
 41
1.0
 10
12.361
 20
4.61
 30
0.0
 41
1.0
 10
12.361
 20
4.61
 30
0.0
 41
1.0
 10
13.1425
 20
4.4351
 30
0.0
 41
1.0
 10
13.9155
 20
4.2484
 30
0.0
 41
1.0
 10
14.6454
 20
4.041299999999998
 30
0.0
 41
1.0
 10
14.6454
 20
4.041299999999998
 30
0.0
 41
1.0
 10
15.0101
 20
3.937899999999998
 30
0.0
 41
1.0
 10
15.3648
 20
3.8296
 30
0.0
 41
1.0
 10
15.699
 20
3.711699999999998
 30
0.0
 41
1.0
 10
15.699
 20
3.711699999999998
 30
0.0
 41
1.0
 10
15.8599
 20
3.6551
 30
0.0
 41
1.0
 10
16.0181
 20
3.5952
 30
0.0
 41
1.0
 10
16.1604
 20
3.532799999999998
 30
0.0
 41
1.0
 10
16.1604
 20
3.532799999999998
 30
0.0
 41
1.0
 10
16.5531
 20
2.836299999999998
 30
0.0
 41
1.0
 10
16.7994
 20
2.3883
 30
0.0
 41
1.0
 10
17.0929
 20
1.9794
 30
0.0
 41
1.0
 10
17.0929
 20
1.9794
 30
0.0
 41
1.0
 10
17.1362
 20
1.925699999999999
 30
0.0
 41
1.0
 10
17.1702
 20
1.873499999999999
 30
0.0
 41
1.0
 10
17.2612
 20
1.7957
 30
0.0
 41
1.0
 10
17.2612
 20
1.7957
 30
0.0
 41
1.0
 10
17.3905
 20
1.710999999999999
 30
0.0
 41
1.0
 10
17.477
 20
1.7031
 30
0.0
 41
1.0
 10
17.5356
 20
1.6888
 30
0.0
 41
1.0
 10
17.5356
 20
1.6888
 30
0.0
 41
1.0
 10
17.6606
 20
1.6666
 30
0.0
 41
1.0
 10
17.7651
 20
1.656999999999999
 30
0.0
 41
1.0
 10
17.8624
 20
1.6485
 30
0.0
 41
1.0
 10
17.8624
 20
1.6485
 30
0.0
 41
1.0
 10
18.0542
 20
1.6342
 30
0.0
 41
1.0
 10
18.2116
 20
1.6283
 30
0.0
 41
1.0
 10
18.3232
 20
1.6281
 30
0.0
 41
1.0
 10
18.3232
 20
1.6281
 30
0.0
 41
1.0
 10
18.8676
 20
1.5797
 30
0.0
 41
1.0
 10
19.4144
 20
1.539099999999999
 30
0.0
 41
1.0
 10
19.9367
 20
1.443299999999999
 30
0.0
 41
1.0
 10
19.9367
 20
1.443299999999999
 30
0.0
 41
1.0
 10
20.4095
 20
1.3525
 30
0.0
 41
1.0
 10
20.9946
 20
1.100899999999998
 30
0.0
 41
1.0
 10
21.55
 20
1.0072
 30
0.0
 41
1.0
 10
21.55
 20
1.0072
 30
0.0
 41
1.0
 10
22.6899
 20
0.7685
 30
0.0
 41
1.0
 10
23.7467
 20
0.5518
 30
0.0
 41
1.0
 10
24.987
 20
0.4039
 30
0.0
 41
1.0
 10
24.987
 20
0.4039
 30
0.0
 41
1.0
 10
25.6077
 20
0.4206
 30
0.0
 41
1.0
 10
26.1498
 20
0.5053
 30
0.0
 41
1.0
 10
26.6997
 20
0.4732000000000001
 30
0.0
 41
1.0
 10
26.6997
 20
0.4732000000000001
 30
0.0
 41
1.0
 10
27.258
 20
0.4784
 30
0.0
 41
1.0
 10
27.7067
 20
0.2578
 30
0.0
 41
1.0
 10
28.3385
 20
0.1086
 30
0.0
 41
1.0
 10
28.3385
 20
0.1086
 30
0.0
 41
1.0
 10
29.5293
 20
-0.1629
 30
0.0
 41
1.0
 10
30.8587
 20
0.0752
 30
0.0
 41
1.0
 10
31.8369
 20
0.8176
 30
0.0
 41
1.0
 10
31.8369
 20
0.8176
 30
0.0
 41
1.0
 10
31.9848
 20
1.033099999999999
 30
0.0
 41
1.0
 10
32.9244
 20
1.5357
 30
0.0
 41
1.0
 10
33.3863
 20
1.7698
 30
0.0
 41
1.0
 10
33.3863
 20
1.7698
 30
0.0
 41
1.0
 10
33.979
 20
2.076299999999998
 30
0.0
 41
1.0
 10
34.3282
 20
2.298299999999998
 30
0.0
 41
1.0
 10
34.5999
 20
2.5727
 30
0.0
 41
1.0
 10
34.5999
 20
2.5727
 30
0.0
 41
1.0
 10
34.8608
 20
2.8451
 30
0.0
 41
1.0
 10
35.0893
 20
3.184099999999998
 30
0.0
 41
1.0
 10
35.13170000000001
 20
3.7663
 30
0.0
 41
1.0
 10
35.13170000000001
 20
3.7663
 30
0.0
 41
1.0
 10
35.0941
 20
3.9306
 30
0.0
 41
1.0
 10
35.0867
 20
4.465499999999998
 30
0.0
 41
1.0
 10
34.8782
 20
5.1112
 30
0.0
 41
1.0
 10
34.8782
 20
5.1112
 30
0.0
 41
1.0
 10
34.7748
 20
5.431499999999998
 30
0.0
 41
1.0
 10
34.6164
 20
5.7732
 30
0.0
 41
1.0
 10
34.396
 20
6.0788
 30
0.0
 41
1.0
 10
34.396
 20
6.0788
 30
0.0
 41
1.0
 10
34.2854
 20
6.2312
 30
0.0
 41
1.0
 10
34.1595
 20
6.3738
 30
0.0
 41
1.0
 10
34.0212
 20
6.500399999999999
 30
0.0
 41
1.0
 10
34.0212
 20
6.500399999999999
 30
0.0
 41
1.0
 10
33.9923
 20
6.5171
 30
0.0
 41
1.0
 10
33.8992
 20
6.6165
 30
0.0
 41
1.0
 10
33.8662
 20
6.627399999999998
 30
0.0
 41
1.0
 10
33.8662
 20
6.627399999999998
 30
0.0
 41
1.0
 10
33.8662
 20
6.627399999999998
 30
0.0
 41
1.0
 10
33.881
 20
6.8502
 30
0.0
 41
1.0
 10
33.881
 20
6.8502
 30
0.0
 41
1.0
 10
33.881
 20
6.8502
 30
0.0
 41
1.0
 10
33.9205
 20
7.416699999999998
 30
0.0
 41
1.0
 10
33.89670000000001
 20
7.9244
 30
0.0
 41
1.0
 10
33.778
 20
8.378999999999999
 30
0.0
 41
1.0
 10
33.778
 20
8.378999999999999
 30
0.0
 41
1.0
 10
33.7463
 20
8.4921
 30
0.0
 41
1.0
 10
33.70900000000001
 20
8.601399999999998
 30
0.0
 41
1.0
 10
33.6638
 20
8.7063
 30
0.0
 41
1.0
 10
33.6638
 20
8.7063
 30
0.0
 41
1.0
 10
33.684
 20
8.695199999999998
 30
0.0
 41
1.0
 10
33.7037
 20
8.884399999999997
 30
0.0
 41
1.0
 10
33.72310000000001
 20
8.960399999999998
 30
0.0
 41
1.0
 10
33.72310000000001
 20
8.960399999999998
 30
0.0
 41
1.0
 10
33.7617
 20
9.1653
 30
0.0
 41
1.0
 10
33.7984
 20
9.362999999999999
 30
0.0
 41
1.0
 10
33.8338
 20
9.556599999999999
 30
0.0
 41
1.0
 10
33.8338
 20
9.556599999999999
 30
0.0
 41
1.0
 10
33.89330000000001
 20
9.714999999999999
 30
0.0
 41
1.0
 10
33.8481
 20
10.0187
 30
0.0
 41
1.0
 10
33.987
 20
10.0538
 30
0.0
 41
1.0
 10
33.987
 20
10.0538
 30
0.0
 41
1.0
 10
34.1149
 20
10.2715
 30
0.0
 41
1.0
 10
34.0706
 20
10.5008
 30
0.0
 41
1.0
 10
34.0171
 20
10.6935
 30
0.0
 41
1.0
 10
34.0171
 20
10.6935
 30
0.0
 41
1.0
 10
33.8825
 20
11.0768
 30
0.0
 41
1.0
 10
33.7282
 20
11.4144
 30
0.0
 41
1.0
 10
33.5946
 20
11.8173
 30
0.0
 41
1.0
 10
33.5946
 20
11.8173
 30
0.0
 41
1.0
 10
33.5946
 20
11.8173
 30
0.0
 41
1.0
 10
33.5521
 20
11.9286
 30
0.0
 41
1.0
 10
33.5521
 20
11.9286
 30
0.0
 41
1.0
 10
33.5521
 20
11.9286
 30
0.0
 41
1.0
 10
33.5383
 20
11.8878
 30
0.0
 41
1.0
 10
33.5241
 20
11.8479
 30
0.0
 41
1.0
 10
33.5444
 20
11.9486
 30
0.0
 41
1.0
 10
33.5444
 20
11.9486
 30
0.0
 41
1.0
 10
33.5444
 20
11.9486
 30
0.0
 41
1.0
 10
33.5521
 20
11.9286
 30
0.0
 41
1.0
 10
33.5521
 20
11.9286
 30
0.0
 41
1.0
 10
33.5521
 20
11.9286
 30
0.0
 41
1.0
 10
33.56
 20
11.952
 30
0.0
 41
1.0
 10
33.5678
 20
11.9758
 30
0.0
 41
1.0
 10
33.5689
 20
11.9734
 30
0.0
 41
1.0
 10
33.5689
 20
11.9734
 30
0.0
 41
1.0
 10
33.5983
 20
12.0525
 30
0.0
 41
1.0
 10
33.621
 20
12.1244
 30
0.0
 41
1.0
 10
33.6408
 20
12.1899
 30
0.0
 41
1.0
 10
33.6408
 20
12.1899
 30
0.0
 41
1.0
 10
33.67990000000001
 20
12.3209
 30
0.0
 41
1.0
 10
33.702
 20
12.4276
 30
0.0
 41
1.0
 10
33.7178
 20
12.5176
 30
0.0
 41
1.0
 10
33.7178
 20
12.5176
 30
0.0
 41
1.0
 10
33.7468
 20
12.6985
 30
0.0
 41
1.0
 10
33.7487
 20
12.8139
 30
0.0
 41
1.0
 10
33.7433
 20
12.9484
 30
0.0
 41
1.0
 10
33.7433
 20
12.9484
 30
0.0
 41
1.0
 10
33.7634
 20
13.1028
 30
0.0
 41
1.0
 10
33.7681
 20
13.3471
 30
0.0
 41
1.0
 10
33.6388
 20
13.5827
 30
0.0
 41
1.0
 10
33.6388
 20
13.5827
 30
0.0
 41
1.0
 10
33.51570000000001
 20
13.8158
 30
0.0
 41
1.0
 10
33.3176
 20
14.0193
 30
0.0
 41
1.0
 10
33.1209
 20
14.2341
 30
0.0
 41
1.0
 10
33.1209
 20
14.2341
 30
0.0
 41
1.0
 10
32.7187
 20
14.6565
 30
0.0
 41
1.0
 10
32.3008
 20
15.1358
 30
0.0
 41
1.0
 10
31.9813
 20
15.5693
 30
0.0
 41
1.0
 10
31.9813
 20
15.5693
 30
0.0
 41
1.0
 10
31.9158
 20
15.5022
 30
0.0
 41
1.0
 10
32.35860000000001
 20
14.8227
 30
0.0
 41
1.0
 10
33.095
 20
14.0215
 30
0.0
 41
1.0
 10
33.095
 20
14.0215
 30
0.0
 41
1.0
 10
33.2684
 20
13.8182
 30
0.0
 41
1.0
 10
33.4722
 20
13.6029
 30
0.0
 41
1.0
 10
33.5505
 20
13.344
 30
0.0
 41
1.0
 10
33.5505
 20
13.344
 30
0.0
 41
1.0
 10
33.5576
 20
13.3186
 30
0.0
 41
1.0
 10
33.5625
 20
13.2924
 30
0.0
 41
1.0
 10
33.56730000000001
 20
13.2661
 30
0.0
 41
1.0
 10
33.56730000000001
 20
13.2661
 30
0.0
 41
1.0
 10
33.5532
 20
13.3016
 30
0.0
 41
1.0
 10
33.5427
 20
13.3258
 30
0.0
 41
1.0
 10
33.5427
 20
13.3258
 30
0.0
 41
1.0
 10
33.5427
 20
13.3258
 30
0.0
 41
1.0
 10
33.1362
 20
13.5967
 30
0.0
 41
1.0
 10
32.2418
 20
14.5724
 30
0.0
 41
1.0
 10
32.2418
 20
14.5724
 30
0.0
 41
1.0
 10
32.2418
 20
14.5724
 30
0.0
 41
1.0
 10
32.2418
 20
14.5724
 30
0.0
 41
1.0
 10
33.378
 20
13.1079
 30
0.0
 41
1.0
 10
33.5788
 20
12.9577
 30
0.0
 41
1.0
 10
33.5788
 20
12.9577
 30
0.0
 41
1.0
 10
33.5664
 20
12.8022
 30
0.0
 41
1.0
 10
33.5324
 20
12.6418
 30
0.0
 41
1.0
 10
33.4919
 20
12.4865
 30
0.0
 41
1.0
 10
33.4919
 20
12.4865
 30
0.0
 41
1.0
 10
33.4523
 20
12.3399
 30
0.0
 41
1.0
 10
33.4037
 20
12.1943
 30
0.0
 41
1.0
 10
33.3483
 20
12.0526
 30
0.0
 41
1.0
 10
33.3483
 20
12.0526
 30
0.0
 41
1.0
 10
33.2654
 20
11.7668
 30
0.0
 41
1.0
 10
33.4185
 20
11.7193
 30
0.0
 41
1.0
 10
33.4441
 20
11.5443
 30
0.0
 41
1.0
 10
33.4441
 20
11.5443
 30
0.0
 41
1.0
 10
33.5524
 20
11.2572
 30
0.0
 41
1.0
 10
33.6796
 20
10.9706
 30
0.0
 41
1.0
 10
33.7768
 20
10.7103
 30
0.0
 41
1.0
 10
33.7768
 20
10.7103
 30
0.0
 41
1.0
 10
33.8347
 20
10.5609
 30
0.0
 41
1.0
 10
33.8641
 20
10.3833
 30
0.0
 41
1.0
 10
33.825
 20
10.2588
 30
0.0
 41
1.0
 10
33.825
 20
10.2588
 30
0.0
 41
1.0
 10
33.7907
 20
10.426
 30
0.0
 41
1.0
 10
33.7533
 20
10.5823
 30
0.0
 41
1.0
 10
33.6752
 20
10.7042
 30
0.0
 41
1.0
 10
33.6752
 20
10.7042
 30
0.0
 41
1.0
 10
33.6678
 20
10.7276
 30
0.0
 41
1.0
 10
33.6488
 20
10.7531
 30
0.0
 41
1.0
 10
33.6533
 20
10.7746
 30
0.0
 41
1.0
 10
33.6533
 20
10.7746
 30
0.0
 41
1.0
 10
33.5451
 20
10.8543
 30
0.0
 41
1.0
 10
33.4768
 20
10.9764
 30
0.0
 41
1.0
 10
33.1685
 20
11.4992
 30
0.0
 41
1.0
 10
33.1685
 20
11.4992
 30
0.0
 41
1.0
 10
33.2138
 20
11.6039
 30
0.0
 41
1.0
 10
32.9078
 20
11.6421
 30
0.0
 41
1.0
 10
32.7769
 20
11.5847
 30
0.0
 41
1.0
 10
32.7769
 20
11.5847
 30
0.0
 41
1.0
 10
32.5508
 20
11.4513
 30
0.0
 41
1.0
 10
32.4588
 20
11.3696
 30
0.0
 41
1.0
 10
32.362
 20
11.2332
 30
0.0
 41
1.0
 10
32.362
 20
11.2332
 30
0.0
 41
1.0
 10
32.3024
 20
11.1502
 30
0.0
 41
1.0
 10
32.2567
 20
11.1373
 30
0.0
 41
1.0
 10
32.2092
 20
11.1063
 30
0.0
 41
1.0
 10
32.2092
 20
11.1063
 30
0.0
 41
1.0
 10
32.2092
 20
11.1063
 30
0.0
 41
1.0
 10
32.1858
 20
11.1005
 30
0.0
 41
1.0
 10
32.1858
 20
11.1005
 30
0.0
 41
1.0
 10
32.1858
 20
11.1005
 30
0.0
 41
1.0
 10
32.0725
 20
11.1556
 30
0.0
 41
1.0
 10
31.9975
 20
11.153
 30
0.0
 41
1.0
 10
31.9618
 20
11.1934
 30
0.0
 41
1.0
 10
31.9618
 20
11.1934
 30
0.0
 41
1.0
 10
31.86
 20
11.2191
 30
0.0
 41
1.0
 10
31.8725
 20
11.1765
 30
0.0
 41
1.0
 10
31.7569
 20
11.1838
 30
0.0
 41
1.0
 10
31.7569
 20
11.1838
 30
0.0
 41
1.0
 10
31.5804
 20
11.2162
 30
0.0
 41
1.0
 10
31.3193
 20
11.0808
 30
0.0
 41
1.0
 10
31.2297
 20
11.1049
 30
0.0
 41
1.0
 10
31.2297
 20
11.1049
 30
0.0
 41
1.0
 10
31.1949
 20
11.0706
 30
0.0
 41
1.0
 10
31.1166
 20
11.0184
 30
0.0
 41
1.0
 10
31.0323
 20
10.9659
 30
0.0
 41
1.0
 10
31.0323
 20
10.9659
 30
0.0
 41
1.0
 10
30.9665
 20
10.9177
 30
0.0
 41
1.0
 10
30.9096
 20
10.8813
 30
0.0
 41
1.0
 10
30.8559
 20
10.8418
 30
0.0
 41
1.0
 10
30.8559
 20
10.8418
 30
0.0
 41
1.0
 10
30.8559
 20
10.8418
 30
0.0
 41
1.0
 10
30.853
 20
10.8408
 30
0.0
 41
1.0
 10
30.853
 20
10.8408
 30
0.0
 41
1.0
 10
30.853
 20
10.8408
 30
0.0
 41
1.0
 10
30.853
 20
10.8408
 30
0.0
 41
1.0
 10
30.8271
 20
10.8413
 30
0.0
 41
1.0
 10
30.8271
 20
10.8413
 30
0.0
 41
1.0
 10
30.8271
 20
10.8413
 30
0.0
 41
1.0
 10
30.8271
 20
10.8413
 30
0.0
 41
1.0
 10
30.6687
 20
10.8438
 30
0.0
 41
1.0
 10
30.6687
 20
10.8438
 30
0.0
 41
1.0
 10
30.6687
 20
10.8438
 30
0.0
 41
1.0
 10
30.5083
 20
10.8203
 30
0.0
 41
1.0
 10
30.5343
 20
10.8904
 30
0.0
 41
1.0
 10
30.4104
 20
10.885
 30
0.0
 41
1.0
 10
30.4104
 20
10.885
 30
0.0
 41
1.0
 10
30.0616
 20
10.8016
 30
0.0
 41
1.0
 10
29.7792
 20
10.6391
 30
0.0
 41
1.0
 10
29.552
 20
10.4584
 30
0.0
 41
1.0
 10
29.552
 20
10.4584
 30
0.0
 41
1.0
 10
29.4384
 20
10.3673
 30
0.0
 41
1.0
 10
29.3353
 20
10.272
 30
0.0
 41
1.0
 10
29.2404
 20
10.1737
 30
0.0
 41
1.0
 10
29.2404
 20
10.1737
 30
0.0
 41
1.0
 10
29.1715
 20
10.1044
 30
0.0
 41
1.0
 10
29.1535
 20
10.0922
 30
0.0
 41
1.0
 10
29.0281
 20
10.062
 30
0.0
 41
1.0
 10
29.0281
 20
10.062
 30
0.0
 41
1.0
 10
28.7705
 20
10.0641
 30
0.0
 41
1.0
 10
28.5334
 20
10.0455
 30
0.0
 41
1.0
 10
28.2366
 20
9.9783
 30
0.0
 41
1.0
 10
28.2366
 20
9.9783
 30
0.0
 41
1.0
 10
27.9953
 20
9.912599999999999
 30
0.0
 41
1.0
 10
27.7386
 20
9.708399999999999
 30
0.0
 41
1.0
 10
27.5814
 20
9.595599999999999
 30
0.0
 41
1.0
 10
27.5814
 20
9.595599999999999
 30
0.0
 41
1.0
 10
26.9832
 20
9.999599999999999
 30
0.0
 41
1.0
 10
26.4447
 20
12.1498
 30
0.0
 41
1.0
 10
26.4689
 20
11.8351
 30
0.0
 41
1.0
 10
26.4689
 20
11.8351
 30
0.0
 41
1.0
 10
26.495
 20
11.4965
 30
0.0
 41
1.0
 10
27.0456
 20
10.1832
 30
0.0
 41
1.0
 10
26.7047
 20
9.5516
 30
0.0
 41
1.0
 10
26.7047
 20
9.5516
 30
0.0
 41
1.0
 10
26.6041
 20
9.5761
 30
0.0
 41
1.0
 10
26.495
 20
9.590099999999999
 30
0.0
 41
1.0
 10
26.3771
 20
9.5844
 30
0.0
 41
1.0
 10
26.3771
 20
9.5844
 30
0.0
 41
1.0
 10
26.1725
 20
9.5728
 30
0.0
 41
1.0
 10
25.9595
 20
9.482599999999999
 30
0.0
 41
1.0
 10
25.7923
 20
9.370799999999999
 30
0.0
 41
1.0
 10
25.7923
 20
9.370799999999999
 30
0.0
 41
1.0
 10
25.7149
 20
9.3285
 30
0.0
 41
1.0
 10
25.6525
 20
9.2763
 30
0.0
 41
1.0
 10
25.5903
 20
9.2271
 30
0.0
 41
1.0
 10
25.5903
 20
9.2271
 30
0.0
 41
1.0
 10
25.5903
 20
9.2271
 30
0.0
 41
1.0
 10
25.5847
 20
9.2256
 30
0.0
 41
1.0
 10
25.5847
 20
9.2256
 30
0.0
 41
1.0
 10
25.5847
 20
9.2256
 30
0.0
 41
1.0
 10
25.4911
 20
9.2721
 30
0.0
 41
1.0
 10
25.3794
 20
9.340299999999999
 30
0.0
 41
1.0
 10
25.3208
 20
9.338699999999999
 30
0.0
 41
1.0
 10
25.3208
 20
9.338699999999999
 30
0.0
 41
1.0
 10
25.104
 20
9.472999999999997
 30
0.0
 41
1.0
 10
24.8434
 20
9.5852
 30
0.0
 41
1.0
 10
24.5311
 20
9.6096
 30
0.0
 41
1.0
 10
24.5311
 20
9.6096
 30
0.0
 41
1.0
 10
24.3772
 20
9.626899999999999
 30
0.0
 41
1.0
 10
24.2036
 20
9.5905
 30
0.0
 41
1.0
 10
24.0535
 20
9.529299999999999
 30
0.0
 41
1.0
 10
24.0535
 20
9.529299999999999
 30
0.0
 41
1.0
 10
24.0242
 20
9.519899999999999
 30
0.0
 41
1.0
 10
23.9994
 20
9.5043
 30
0.0
 41
1.0
 10
23.9743
 20
9.489399999999999
 30
0.0
 41
1.0
 10
23.9743
 20
9.489399999999999
 30
0.0
 41
1.0
 10
23.9743
 20
9.489399999999999
 30
0.0
 41
1.0
 10
23.9806
 20
9.485699999999999
 30
0.0
 41
1.0
 10
23.9806
 20
9.485699999999999
 30
0.0
 41
1.0
 10
23.9806
 20
9.485699999999999
 30
0.0
 41
1.0
 10
23.9806
 20
9.485699999999999
 30
0.0
 41
1.0
 10
23.966
 20
9.4846
 30
0.0
 41
1.0
 10
23.966
 20
9.4846
 30
0.0
 41
1.0
 10
23.966
 20
9.4846
 30
0.0
 41
1.0
 10
23.9687
 20
9.4862
 30
0.0
 41
1.0
 10
23.9716
 20
9.4878
 30
0.0
 41
1.0
 10
23.9743
 20
9.489399999999999
 30
0.0
 41
1.0
 10
23.9743
 20
9.489399999999999
 30
0.0
 41
1.0
 10
23.9743
 20
9.489399999999999
 30
0.0
 41
1.0
 10
23.8957
 20
9.5342
 30
0.0
 41
1.0
 10
23.8957
 20
9.5342
 30
0.0
 41
1.0
 10
23.8957
 20
9.5342
 30
0.0
 41
1.0
 10
23.8569
 20
9.5242
 30
0.0
 41
1.0
 10
23.7316
 20
9.5807
 30
0.0
 41
1.0
 10
23.6695
 20
9.586299999999999
 30
0.0
 41
1.0
 10
23.6695
 20
9.586299999999999
 30
0.0
 41
1.0
 10
23.5154
 20
9.6263
 30
0.0
 41
1.0
 10
23.5061
 20
9.6765
 30
0.0
 41
1.0
 10
23.3797
 20
9.704599999999999
 30
0.0
 41
1.0
 10
23.3797
 20
9.704599999999999
 30
0.0
 41
1.0
 10
23.3797
 20
9.704599999999999
 30
0.0
 41
1.0
 10
23.2787
 20
9.7695
 30
0.0
 41
1.0
 10
23.2787
 20
9.7695
 30
0.0
 41
1.0
 10
23.2787
 20
9.7695
 30
0.0
 41
1.0
 10
22.919
 20
10.6764
 30
0.0
 41
1.0
 10
22.9347
 20
11.6164
 30
0.0
 41
1.0
 10
23.84
 20
11.5098
 30
0.0
 41
1.0
 10
23.84
 20
11.5098
 30
0.0
 41
1.0
 10
23.84
 20
11.5098
 30
0.0
 41
1.0
 10
23.8616
 20
11.6626
 30
0.0
 41
1.0
 10
23.8361
 20
11.8427
 30
0.0
 41
1.0
 10
23.8361
 20
11.8427
 30
0.0
 41
1.0
 10
23.8415
 20
11.8359
 30
0.0
 41
1.0
 10
23.8469
 20
11.8286
 30
0.0
 41
1.0
 10
23.8526
 20
11.8222
 30
0.0
 41
1.0
 10
23.8526
 20
11.8222
 30
0.0
 41
1.0
 10
23.8771
 20
11.8449
 30
0.0
 41
1.0
 10
23.8382
 20
11.9302
 30
0.0
 41
1.0
 10
23.7944
 20
12.0202
 30
0.0
 41
1.0
 10
23.7944
 20
12.0202
 30
0.0
 41
1.0
 10
23.7777
 20
12.0691
 30
0.0
 41
1.0
 10
23.7561
 20
12.117
 30
0.0
 41
1.0
 10
23.7283
 20
12.1619
 30
0.0
 41
1.0
 10
23.7283
 20
12.1619
 30
0.0
 41
1.0
 10
23.7227
 20
12.1757
 30
0.0
 41
1.0
 10
23.7172
 20
12.1894
 30
0.0
 41
1.0
 10
23.7135
 20
12.2013
 30
0.0
 41
1.0
 10
23.7135
 20
12.2013
 30
0.0
 41
1.0
 10
23.5884
 20
12.3987
 30
0.0
 41
1.0
 10
23.4952
 20
12.4822
 30
0.0
 41
1.0
 10
23.3437
 20
12.5156
 30
0.0
 41
1.0
 10
23.3437
 20
12.5156
 30
0.0
 41
1.0
 10
23.2428
 20
12.5392
 30
0.0
 41
1.0
 10
23.2174
 20
12.561
 30
0.0
 41
1.0
 10
23.1684
 20
12.5856
 30
0.0
 41
1.0
 10
23.1684
 20
12.5856
 30
0.0
 41
1.0
 10
23.0663
 20
12.5803
 30
0.0
 41
1.0
 10
22.9481
 20
12.5457
 30
0.0
 41
1.0
 10
22.8951
 20
12.5473
 30
0.0
 41
1.0
 10
22.8951
 20
12.5473
 30
0.0
 41
1.0
 10
22.7925
 20
12.5121
 30
0.0
 41
1.0
 10
22.7339
 20
12.4981
 30
0.0
 41
1.0
 10
22.6951
 20
12.5036
 30
0.0
 41
1.0
 10
22.6951
 20
12.5036
 30
0.0
 41
1.0
 10
22.6178
 20
12.4787
 30
0.0
 41
1.0
 10
22.6362
 20
12.4608
 30
0.0
 41
1.0
 10
22.5457
 20
12.4328
 30
0.0
 41
1.0
 10
22.5457
 20
12.4328
 30
0.0
 41
1.0
 10
22.4132
 20
12.4009
 30
0.0
 41
1.0
 10
22.2016
 20
12.2772
 30
0.0
 41
1.0
 10
22.1349
 20
12.2961
 30
0.0
 41
1.0
 10
22.1349
 20
12.2961
 30
0.0
 41
1.0
 10
22.1072
 20
12.2708
 30
0.0
 41
1.0
 10
22.0402
 20
12.2392
 30
0.0
 41
1.0
 10
21.9691
 20
12.2078
 30
0.0
 41
1.0
 10
21.9691
 20
12.2078
 30
0.0
 41
1.0
 10
21.8804
 20
12.1768
 30
0.0
 41
1.0
 10
21.8135
 20
12.1635
 30
0.0
 41
1.0
 10
21.7516
 20
12.1538
 30
0.0
 41
1.0
 10
21.7516
 20
12.1538
 30
0.0
 41
1.0
 10
21.6738
 20
12.1247
 30
0.0
 41
1.0
 10
21.5937
 20
12.1022
 30
0.0
 41
1.0
 10
21.5147
 20
12.0758
 30
0.0
 41
1.0
 10
21.5147
 20
12.0758
 30
0.0
 41
1.0
 10
21.394
 20
12.0376
 30
0.0
 41
1.0
 10
21.4071
 20
12.0906
 30
0.0
 41
1.0
 10
21.3177
 20
12.0747
 30
0.0
 41
1.0
 10
21.3177
 20
12.0747
 30
0.0
 41
1.0
 10
20.8092
 20
11.9339
 30
0.0
 41
1.0
 10
20.3736
 20
11.9601
 30
0.0
 41
1.0
 10
19.8983
 20
11.9891
 30
0.0
 41
1.0
 10
19.8983
 20
11.9891
 30
0.0
 41
1.0
 10
19.645
 20
12.0368
 30
0.0
 41
1.0
 10
19.4736
 20
12.055
 30
0.0
 41
1.0
 10
19.2464
 20
12.1246
 30
0.0
 41
1.0
 10
19.2464
 20
12.1246
 30
0.0
 41
1.0
 10
19.0509
 20
12.1722
 30
0.0
 41
1.0
 10
18.7711
 20
12.2243
 30
0.0
 41
1.0
 10
18.6314
 20
12.2891
 30
0.0
 41
1.0
 10
18.6314
 20
12.2891
 30
0.0
 41
1.0
 10
18.3993
 20
12.324
 30
0.0
 41
1.0
 10
18.0879
 20
12.4379
 30
0.0
 41
1.0
 10
17.8139
 20
12.5622
 30
0.0
 41
1.0
 10
17.8139
 20
12.5622
 30
0.0
 41
1.0
 10
17.6476
 20
12.6073
 30
0.0
 41
1.0
 10
17.4785
 20
12.6942
 30
0.0
 41
1.0
 10
17.2757
 20
12.7762
 30
0.0
 41
1.0
 10
17.2757
 20
12.7762
 30
0.0
 41
1.0
 10
17.0058
 20
12.8846
 30
0.0
 41
1.0
 10
16.6523
 20
13.0098
 30
0.0
 41
1.0
 10
16.3971
 20
13.1182
 30
0.0
 41
1.0
 10
16.3971
 20
13.1182
 30
0.0
 41
1.0
 10
16.3088
 20
13.1498
 30
0.0
 41
1.0
 10
16.1958
 20
13.1929
 30
0.0
 41
1.0
 10
16.1475
 20
13.1932
 30
0.0
 41
1.0
 10
16.1475
 20
13.1932
 30
0.0
 41
1.0
 10
15.734
 20
13.3763
 30
0.0
 41
1.0
 10
15.2485
 20
13.4806
 30
0.0
 41
1.0
 10
14.7851
 20
13.5664
 30
0.0
 41
1.0
 10
14.7851
 20
13.5664
 30
0.0
 41
1.0
 10
14.7562
 20
13.549
 30
0.0
 41
1.0
 10
14.6427
 20
13.577
 30
0.0
 41
1.0
 10
14.5893
 20
13.5679
 30
0.0
 41
1.0
 10
14.5893
 20
13.5679
 30
0.0
 41
1.0
 10
14.4534
 20
13.5762
 30
0.0
 41
1.0
 10
14.4362
 20
13.6059
 30
0.0
 41
1.0
 10
14.3294
 20
13.6194
 30
0.0
 41
1.0
  0
LWPOLYLINE
  5
7DE
330
1F
100
AcDbEntity
  8
0
100
AcDbPolyline
 90
        6
 70
     1
 43
0.0
 10
22.0896
 20
9.7848
 10
22.55
 20
9.728099999999999
 10
22.8875
 20
9.451399999999999
 10
22.5872
 20
8.974899999999998
 10
22.5844
 20
8.6536
 10
21.8783
 20
8.7962
  0
ENDSEC
  0
SECTION
  2
OBJECTS
  0
DICTIONARY
  5
C
330
0
100
AcDbDictionary
281
     1
  3
ACAD_CIP_PREVIOUS_PRODUCT_INFO
350
DA
  3
ACAD_COLOR
350
D5
  3
ACAD_DETAILVIEWSTYLE
350
D1
  3
ACAD_GROUP
350
D
  3
ACAD_LAYOUT
350
1A
  3
ACAD_MATERIAL
350
43
  3
ACAD_MLEADERSTYLE
350
6B
  3
ACAD_MLINESTYLE
350
17
  3
ACAD_PLOTSETTINGS
350
19
  3
ACAD_PLOTSTYLENAME
350
E
  3
ACAD_SCALELIST
350
47
  3
ACAD_SECTIONVIEWSTYLE
350
D2
  3
ACAD_TABLESTYLE
350
69
  3
ACAD_VISUALSTYLE
350
2A
  3
ACDB_RECOMPOSE_DATA
350
7E2
  3
AcDbVariableDictionary
350
96
  0
SUN
  5
6D
330
29
100
AcDbSun
 90
        1
290
     1
 63
     7
421
 16777215
 40
1.0
291
     1
 91
  2455826
 92
 54000000
292
     0
 70
     0
 71
   256
280
     1
  0
DICTIONARY
  5
7CB
330
10
100
AcDbDictionary
280
     1
281
     1
  3
ADSK_XREC_LAYER_RECONCILED
360
7CC
  0
DICTIONARY
  5
7CD
330
6F
100
AcDbDictionary
280
     1
281
     1
  3
ADSK_XREC_LAYER_RECONCILED
360
7CE
  0
DICTIONARY
  5
DC
330
1F
100
AcDbDictionary
280
     1
281
     1
  3
ACAD_SORTENTS
360
DD
  0
XRECORD
  5
DA
102
{ACAD_REACTORS
330
C
102
}
330
C
100
AcDbXrecord
280
     1
300
ACD
300
2016
300
DSADV_F_S
  0
DICTIONARY
  5
D5
102
{ACAD_REACTORS
330
C
102
}
330
C
100
AcDbDictionary
281
     1
  0
DICTIONARY
  5
D1
102
{ACAD_REACTORS
330
C
102
}
330
C
100
AcDbDictionary
281
     1
  3
Imperial24
350
D7
  0
DICTIONARY
  5
D
102
{ACAD_REACTORS
330
C
102
}
330
C
100
AcDbDictionary
281
     1
  0
DICTIONARY
  5
1A
102
{ACAD_REACTORS
330
C
102
}
330
C
100
AcDbDictionary
281
     1
  3
Layout1
350
1E
  3
Layout2
350
26
  3
Model
350
22
  0
DICTIONARY
  5
43
102
{ACAD_REACTORS
330
C
102
}
330
C
100
AcDbDictionary
281
     1
  3
ByBlock
350
45
  3
ByLayer
350
44
  3
Global
350
46
  0
DICTIONARY
  5
6B
102
{ACAD_REACTORS
330
C
102
}
330
C
100
AcDbDictionary
281
     1
  3
Standard
350
6C
  0
DICTIONARY
  5
17
102
{ACAD_REACTORS
330
C
102
}
330
C
100
AcDbDictionary
281
     1
  3
Standard
350
18
  0
DICTIONARY
  5
19
102
{ACAD_REACTORS
330
C
102
}
330
C
100
AcDbDictionary
281
     1
  0
ACDBDICTIONARYWDFLT
  5
E
102
{ACAD_REACTORS
330
C
102
}
330
C
100
AcDbDictionary
281
     1
  3
Normal
350
F
100
AcDbDictionaryWithDefault
340
F
  0
DICTIONARY
  5
47
102
{ACAD_REACTORS
330
C
102
}
330
C
100
AcDbDictionary
281
     1
  3
A0
350
48
  3
A1
350
49
  3
A2
350
4A
  3
A3
350
4B
  3
A4
350
4C
  3
A5
350
4D
  3
A6
350
4E
  3
A7
350
4F
  3
A8
350
50
  3
A9
350
51
  3
B0
350
52
  3
B1
350
53
  3
B2
350
54
  3
B3
350
55
  3
B4
350
56
  3
B5
350
57
  3
B6
350
58
  3
B7
350
59
  3
B8
350
5A
  3
B9
350
5B
  3
C0
350
5C
  3
C1
350
5D
  3
C2
350
5E
  3
C3
350
5F
  3
C4
350
60
  3
C5
350
61
  3
C6
350
62
  3
C7
350
63
  3
C8
350
64
  3
C9
350
65
  3
D0
350
66
  3
D1
350
67
  3
D2
350
68
  0
DICTIONARY
  5
D2
102
{ACAD_REACTORS
330
C
102
}
330
C
100
AcDbDictionary
281
     1
  3
Imperial24
350
D6
  0
DICTIONARY
  5
69
102
{ACAD_REACTORS
330
C
102
}
330
C
100
AcDbDictionary
281
     1
  3
Standard
350
6A
  0
DICTIONARY
  5
2A
102
{ACAD_REACTORS
330
C
102
}
330
C
100
AcDbDictionary
281
     1
  3
2dWireframe
350
2F
  3
Basic
350
32
  3
Brighten
350
36
  3
ColorChange
350
3A
  3
Conceptual
350
34
  3
Dim
350
35
  3
EdgeColorOff
350
3D
  3
Facepattern
350
39
  3
Flat
350
2B
  3
FlatWithEdges
350
2C
  3
Gouraud
350
2D
  3
GouraudWithEdges
350
2E
  3
Hidden
350
31
  3
JitterOff
350
3B
  3
Linepattern
350
38
  3
OverhangOff
350
3C
  3
Realistic
350
33
  3
Shaded
350
42
  3
Shaded with edges
350
41
  3
Shades of Gray
350
3E
  3
Sketchy
350
3F
  3
Thicken
350
37
  3
Wireframe
350
30
  3
X-Ray
350
40
  0
XRECORD
  5
7E2
102
{ACAD_REACTORS
330
C
102
}
330
C
100
AcDbXrecord
280
     1
 90
        1
330
6A
330
D6
330
D7
  0
DICTIONARY
  5
96
102
{ACAD_REACTORS
330
C
102
}
330
C
100
AcDbDictionary
281
     1
  3
CANNOSCALE
350
97
  3
CMLEADERSTYLE
350
D0
  3
CTABLESTYLE
350
CF
  3
CVIEWDETAILSTYLE
350
7CF
  3
CVIEWSECTIONSTYLE
350
7D0
  3
LAYEREVAL
350
7D1
  3
LAYERNOTIFY
350
7D2
  0
XRECORD
  5
7CC
102
{ACAD_REACTORS
330
7CB
102
}
330
7CB
100
AcDbXrecord
280
     1
290
     1
  0
XRECORD
  5
7CE
102
{ACAD_REACTORS
330
7CD
102
}
330
7CD
100
AcDbXrecord
280
     1
290
     1
  0
SORTENTSTABLE
  5
DD
102
{ACAD_REACTORS
330
DC
102
}
330
DC
100
AcDbSortentsTable
330
1F
331
14F
  5
6F1
331
290
  5
5B0
331
143
  5
71F
331
49E
  5
3B2
331
4D5
  5
388
331
40B
  5
42D
331
3C4
  5
448
331
E8
  5
750
331
E4
  5
754
331
179
  5
6E5
331
E0
  5
756
331
462
  5
3C0
331
2AE
  5
58E
331
370
  5
4B3
331
1FE
  5
68C
331
556
  5
14F
331
664
  5
25D
331
2DD
  5
55D
331
3AB
  5
494
331
235
  5
62D
331
449
  5
408
331
318
  5
52C
331
19F
  5
6B1
331
183
  5
6BB
331
6E9
  5
2E2
331
6A6
  5
29F
331
337
  5
4DA
331
115
  5
74C
331
263
  5
5DC
331
55C
  5
155
  0
ACDBDETAILVIEWSTYLE
  5
D7
102
{ACAD_XDICTIONARY
360
7D6
102
}
102
{ACAD_REACTORS
330
D1
102
}
330
D1
100
AcDbModelDocViewStyle
 70
     0
  3
Imperial24
290
     0
100
AcDbDetailViewStyle
 70
     0
 71
     0
 90
        3
 71
     1
340
11
 62
   256
 40
0.24
340
0
 62
   256
 40
0.24
300

 40
0.36
280
     3
 71
     2
340
16
 90
       25
 62
   256
 71
     3
340
11
 62
   256
 40
0.24
 90
        1
 40
0.75
 90
        1
300
%<\AcVar ViewType \f "%tc1">% %<\AcVar ViewDetailId>%\PSCALE %<\AcVar ViewScale \f "%sn">%
 71
     4
340
16
 90
       25
 62
   256
340
16
 90
       25
 62
   256
280
     0
  0
LAYOUT
  5
1E
102
{ACAD_REACTORS
330
1A
102
}
330
1A
100
AcDbPlotSettings
  1

  2
none_device
  4

  6

 40
0.0
 41
0.0
 42
0.0
 43
0.0
 44
0.0
 45
0.0
 46
0.0
 47
0.0
 48
0.0
 49
0.0
140
0.0
141
0.0
142
1.0
143
1.0
 70
   688
 72
     0
 73
     0
 74
     5
  7

 75
    16
147
1.0
 76
     0
 77
     2
 78
   300
148
0.0
149
0.0
100
AcDbLayout
  1
Layout1
 70
     1
 71
     1
 10
0.0
 20
0.0
 11
12.0
 21
9.0
 12
0.0
 22
0.0
 32
0.0
 14
1.000000000000000E+20
 24
1.000000000000000E+20
 34
1.000000000000000E+20
 15
-1.000000000000000E+20
 25
-1.000000000000000E+20
 35
-1.000000000000000E+20
146
0.0
 13
0.0
 23
0.0
 33
0.0
 16
1.0
 26
0.0
 36
0.0
 17
0.0
 27
1.0
 37
0.0
 76
     0
330
1B
  0
LAYOUT
  5
26
102
{ACAD_REACTORS
330
1A
102
}
330
1A
100
AcDbPlotSettings
  1

  2
none_device
  4

  6

 40
0.0
 41
0.0
 42
0.0
 43
0.0
 44
0.0
 45
0.0
 46
0.0
 47
0.0
 48
0.0
 49
0.0
140
0.0
141
0.0
142
1.0
143
1.0
 70
   688
 72
     0
 73
     0
 74
     5
  7

 75
    16
147
1.0
 76
     0
 77
     2
 78
   300
148
0.0
149
0.0
100
AcDbLayout
  1
Layout2
 70
     1
 71
     2
 10
0.0
 20
0.0
 11
0.0
 21
0.0
 12
0.0
 22
0.0
 32
0.0
 14
0.0
 24
0.0
 34
0.0
 15
0.0
 25
0.0
 35
0.0
146
0.0
 13
0.0
 23
0.0
 33
0.0
 16
1.0
 26
0.0
 36
0.0
 17
0.0
 27
1.0
 37
0.0
 76
     0
330
23
  0
LAYOUT
  5
22
102
{ACAD_REACTORS
330
1A
102
}
330
1A
100
AcDbPlotSettings
  1

  2
none_device
  4
Letter_(8.50_x_11.00_Inches)
  6

 40
6.349999999999998
 41
6.349999999999998
 42
6.350005079999998
 43
6.350005079999998
 44
215.9
 45
279.4
 46
0.0
 47
0.0
 48
0.0
 49
0.0
140
0.0
141
0.0
142
1.0
143
1.0
 70
  1712
 72
     0
 73
     0
 74
     0
  7

 75
     0
147
1.0
 76
     0
 77
     2
 78
   300
148
0.0
149
0.0
100
AcDbLayout
  1
Model
 70
     1
 71
     0
 10
0.0
 20
0.0
 11
12.0
 21
9.0
 12
0.0
 22
0.0
 32
0.0
 14
0.8299999999999998
 24
-0.0378
 34
0.0
 15
35.1698
 25
36.03800000000001
 35
0.0
146
0.0
 13
0.0
 23
0.0
 33
0.0
 16
1.0
 26
0.0
 36
0.0
 17
0.0
 27
1.0
 37
0.0
 76
     0
330
1F
331
29
  0
MATERIAL
  5
45
102
{ACAD_REACTORS
330
43
102
}
330
43
100
AcDbMaterial
  1
ByBlock
  0
MATERIAL
  5
44
102
{ACAD_REACTORS
330
43
102
}
330
43
100
AcDbMaterial
  1
ByLayer
  0
MATERIAL
  5
46
102
{ACAD_REACTORS
330
43
102
}
330
43
100
AcDbMaterial
  1
Global
  0
MLEADERSTYLE
  5
6C
102
{ACAD_REACTORS
330
6B
102
}
330
6B
100
AcDbMLeaderStyle
179
     2
170
     2
171
     1
172
     0
 90
        2
 40
0.0
 41
0.0
173
     1
 91
-1056964608
340
14
 92
       -2
290
     1
 42
0.09
291
     1
 43
0.36
  3
Standard
 44
0.18
300

342
11
174
     1
178
     6
175
     1
176
     0
 93
-1056964608
 45
0.18
292
     0
297
     0
 46
0.18
 94
-1056964608
 47
1.0
 49
1.0
140
1.0
293
     1
141
0.0
294
     1
177
     0
142
1.0
295
     0
296
     0
143
0.125
271
     0
272
     9
273
     9
298
     0
1001
ACAD_MLEADERVER
1070
     2
  0
MLINESTYLE
  5
18
102
{ACAD_REACTORS
330
17
102
}
330
17
100
AcDbMlineStyle
  2
STANDARD
 70
     0
  3

 62
   256
 51
90.0
 52
90.0
 71
     2
 49
0.5
 62
   256
  6
BYLAYER
 49
-0.5
 62
   256
  6
BYLAYER
  0
ACDBPLACEHOLDER
  5
F
102
{ACAD_REACTORS
330
E
102
}
330
E
  0
SCALE
  5
48
102
{ACAD_REACTORS
330
47
102
}
330
47
100
AcDbScale
 70
     0
300
1:1
140
1.0
141
1.0
290
     1
  0
SCALE
  5
49
102
{ACAD_REACTORS
330
47
102
}
330
47
100
AcDbScale
 70
     0
300
1:2
140
1.0
141
2.0
290
     0
  0
SCALE
  5
4A
102
{ACAD_REACTORS
330
47
102
}
330
47
100
AcDbScale
 70
     0
300
1:4
140
1.0
141
4.0
290
     0
  0
SCALE
  5
4B
102
{ACAD_REACTORS
330
47
102
}
330
47
100
AcDbScale
 70
     0
300
1:5
140
1.0
141
5.0
290
     0
  0
SCALE
  5
4C
102
{ACAD_REACTORS
330
47
102
}
330
47
100
AcDbScale
 70
     0
300
1:8
140
1.0
141
8.0
290
     0
  0
SCALE
  5
4D
102
{ACAD_REACTORS
330
47
102
}
330
47
100
AcDbScale
 70
     0
300
1:10
140
1.0
141
10.0
290
     0
  0
SCALE
  5
4E
102
{ACAD_REACTORS
330
47
102
}
330
47
100
AcDbScale
 70
     0
300
1:16
140
1.0
141
16.0
290
     0
  0
SCALE
  5
4F
102
{ACAD_REACTORS
330
47
102
}
330
47
100
AcDbScale
 70
     0
300
1:20
140
1.0
141
20.0
290
     0
  0
SCALE
  5
50
102
{ACAD_REACTORS
330
47
102
}
330
47
100
AcDbScale
 70
     0
300
1:30
140
1.0
141
30.0
290
     0
  0
SCALE
  5
51
102
{ACAD_REACTORS
330
47
102
}
330
47
100
AcDbScale
 70
     0
300
1:40
140
1.0
141
40.0
290
     0
  0
SCALE
  5
52
102
{ACAD_REACTORS
330
47
102
}
330
47
100
AcDbScale
 70
     0
300
1:50
140
1.0
141
50.0
290
     0
  0
SCALE
  5
53
102
{ACAD_REACTORS
330
47
102
}
330
47
100
AcDbScale
 70
     0
300
1:100
140
1.0
141
100.0
290
     0
  0
SCALE
  5
54
102
{ACAD_REACTORS
330
47
102
}
330
47
100
AcDbScale
 70
     0
300
2:1
140
2.0
141
1.0
290
     0
  0
SCALE
  5
55
102
{ACAD_REACTORS
330
47
102
}
330
47
100
AcDbScale
 70
     0
300
4:1
140
4.0
141
1.0
290
     0
  0
SCALE
  5
56
102
{ACAD_REACTORS
330
47
102
}
330
47
100
AcDbScale
 70
     0
300
8:1
140
8.0
141
1.0
290
     0
  0
SCALE
  5
57
102
{ACAD_REACTORS
330
47
102
}
330
47
100
AcDbScale
 70
     0
300
10:1
140
10.0
141
1.0
290
     0
  0
SCALE
  5
58
102
{ACAD_REACTORS
330
47
102
}
330
47
100
AcDbScale
 70
     0
300
100:1
140
100.0
141
1.0
290
     0
  0
SCALE
  5
59
102
{ACAD_REACTORS
330
47
102
}
330
47
100
AcDbScale
 70
     0
300
1/128" = 1'-0"
140
0.0078125
141
12.0
290
     0
  0
SCALE
  5
5A
102
{ACAD_REACTORS
330
47
102
}
330
47
100
AcDbScale
 70
     0
300
1/64" = 1'-0"
140
0.015625
141
12.0
290
     0
  0
SCALE
  5
5B
102
{ACAD_REACTORS
330
47
102
}
330
47
100
AcDbScale
 70
     0
300
1/32" = 1'-0"
140
0.03125
141
12.0
290
     0
  0
SCALE
  5
5C
102
{ACAD_REACTORS
330
47
102
}
330
47
100
AcDbScale
 70
     0
300
1/16" = 1'-0"
140
0.0625
141
12.0
290
     0
  0
SCALE
  5
5D
102
{ACAD_REACTORS
330
47
102
}
330
47
100
AcDbScale
 70
     0
300
3/32" = 1'-0"
140
0.09375
141
12.0
290
     0
  0
SCALE
  5
5E
102
{ACAD_REACTORS
330
47
102
}
330
47
100
AcDbScale
 70
     0
300
1/8" = 1'-0"
140
0.125
141
12.0
290
     0
  0
SCALE
  5
5F
102
{ACAD_REACTORS
330
47
102
}
330
47
100
AcDbScale
 70
     0
300
3/16" = 1'-0"
140
0.1875
141
12.0
290
     0
  0
SCALE
  5
60
102
{ACAD_REACTORS
330
47
102
}
330
47
100
AcDbScale
 70
     0
300
1/4" = 1'-0"
140
0.25
141
12.0
290
     0
  0
SCALE
  5
61
102
{ACAD_REACTORS
330
47
102
}
330
47
100
AcDbScale
 70
     0
300
3/8" = 1'-0"
140
0.375
141
12.0
290
     0
  0
SCALE
  5
62
102
{ACAD_REACTORS
330
47
102
}
330
47
100
AcDbScale
 70
     0
300
1/2" = 1'-0"
140
0.5
141
12.0
290
     0
  0
SCALE
  5
63
102
{ACAD_REACTORS
330
47
102
}
330
47
100
AcDbScale
 70
     0
300
3/4" = 1'-0"
140
0.75
141
12.0
290
     0
  0
SCALE
  5
64
102
{ACAD_REACTORS
330
47
102
}
330
47
100
AcDbScale
 70
     0
300
1" = 1'-0"
140
1.0
141
12.0
290
     0
  0
SCALE
  5
65
102
{ACAD_REACTORS
330
47
102
}
330
47
100
AcDbScale
 70
     0
300
1-1/2" = 1'-0"
140
1.5
141
12.0
290
     0
  0
SCALE
  5
66
102
{ACAD_REACTORS
330
47
102
}
330
47
100
AcDbScale
 70
     0
300
3" = 1'-0"
140
3.0
141
12.0
290
     0
  0
SCALE
  5
67
102
{ACAD_REACTORS
330
47
102
}
330
47
100
AcDbScale
 70
     0
300
6" = 1'-0"
140
6.0
141
12.0
290
     0
  0
SCALE
  5
68
102
{ACAD_REACTORS
330
47
102
}
330
47
100
AcDbScale
 70
     0
300
1'-0" = 1'-0"
140
12.0
141
12.0
290
     0
  0
ACDBSECTIONVIEWSTYLE
  5
D6
102
{ACAD_XDICTIONARY
360
7D4
102
}
102
{ACAD_REACTORS
330
D2
102
}
330
D2
100
AcDbModelDocViewStyle
 70
     0
  3
Imperial24
290
     0
100
AcDbSectionViewStyle
 70
     0
 71
     0
 90
       78
 71
     1
340
11
 62
   256
 40
0.24
340
0
340
0
 62
   256
 40
0.24
300
I, O, Q, S, X, Z
 40
0.48
 90
        3
 40
0.18
 90
        1
 71
     2
340
16
 90
       25
 62
   256
340
16
 90
       50
 62
   256
 40
0.24
 40
0.0
 40
0.24
 71
     3
340
11
 62
   256
 40
0.24
 90
        1
 40
0.75
 90
        1
300
%<\AcVar ViewType \f "%tc1">% %<\AcVar ViewSectionStartId>%-%<\AcVar ViewSectionEndId>%\PSCALE %<\AcVar ViewScale \f "%sn">%
 71
     4
 62
   256
 62
   257
300
ANSI31
 40
1.0
 90
        0
290
     0
290
     0
 90
        6
 40
0.0
 40
1.570796326794896
 40
0.2617993877991494
 40
1.308996938995747
 40
-0.2617993877991494
 40
1.832595714594045
  0
TABLESTYLE
  5
6A
102
{ACAD_XDICTIONARY
360
C9
102
}
102
{ACAD_REACTORS
330
69
102
}
330
69
100
AcDbTableStyle
280
     0
  3
Standard
 70
     0
 71
     0
 40
0.06
 41
0.06
280
     0
281
     0
  7
Standard
140
0.18
170
     2
 62
     0
 63
     7
283
     0
 90
        4
 91
        0
  1

274
    -2
284
     1
 64
     0
275
    -2
285
     1
 65
     0
276
    -2
286
     1
 66
     0
277
    -2
287
     1
 67
     0
278
    -2
288
     1
 68
     0
279
    -2
289
     1
 69
     0
  7
Standard
140
0.25
170
     5
 62
     0
 63
     7
283
     0
 90
        4
 91
        0
  1

274
    -2
284
     1
 64
     0
275
    -2
285
     1
 65
     0
276
    -2
286
     1
 66
     0
277
    -2
287
     1
 67
     0
278
    -2
288
     1
 68
     0
279
    -2
289
     1
 69
     0
  7
Standard
140
0.18
170
     5
 62
     0
 63
     7
283
     0
 90
        4
 91
        0
  1

274
    -2
284
     1
 64
     0
275
    -2
285
     1
 65
     0
276
    -2
286
     1
 66
     0
277
    -2
287
     1
 67
     0
278
    -2
288
     1
 68
     0
279
    -2
289
     1
 69
     0
  0
VISUALSTYLE
  5
2F
102
{ACAD_REACTORS
330
2A
102
}
330
2A
100
AcDbVisualStyle
  2

 70
     4
177
     3
291
     0
 70
    58
 90
        0
176
     1
 90
        2
176
     1
 90
        0
176
     1
 90
        0
176
     1
 40
0.6
176
     1
 40
30.0
176
     1
 62
     7
420
 16777215
176
     1
 90
        1
176
     1
 90
        4
176
     1
 62
     7
176
     1
 62
   257
176
     1
 90
        1
176
     1
 90
        1
176
     1
 40
1.0
176
     1
 90
        0
176
     1
 62
   257
176
     1
 40
1.0
176
     1
 90
        1
176
     1
 90
        6
176
     1
 90
        2
176
     1
 62
     7
176
     1
 90
        5
176
     1
 90
        0
176
     1
 90
        0
176
     1
290
     0
176
     1
 90
        1
176
     1
 40
0.0
176
     1
 90
        0
176
     1
290
     1
176
     1
290
     1
176
     1
290
     0
176
     1
290
     0
176
     1
290
     0
176
     1
290
     0
176
     1
290
     0
176
     1
290
     0
176
     1
290
     0
176
     1
 90
       50
176
     1
 40
0.0
176
     1
 40
1.0
176
     1
 90
        0
176
     1
 62
    18
176
     1
 90
       50
176
     1
 90
        3
176
     1
 62
     5
420
      255
176
     1
290
     0
176
     1
 90
       50
176
     1
 90
       50
176
     1
 90
       50
176
     1
290
     0
176
     1
 90
       50
176
     1
 62
   256
176
     0
 40
1.0
176
     0
 90
        2
176
     1
  1
strokes_ogs.tif
176
     1
290
     0
176
     1
 40
1.0
176
     1
 40
1.0
176
     1
  0
VISUALSTYLE
  5
32
102
{ACAD_REACTORS
330
2A
102
}
330
2A
100
AcDbVisualStyle
  2

 70
     7
177
     3
291
     1
 70
    58
 90
        1
176
     1
 90
        0
176
     1
 90
        1
176
     1
 90
        0
176
     1
 40
0.6
176
     1
 40
30.0
176
     1
 62
     7
420
 16777215
176
     1
 90
        0
176
     1
 90
        4
176
     1
 62
     7
176
     1
 62
   257
176
     1
 90
        1
176
     1
 90
        1
176
     1
 40
1.0
176
     1
 90
        8
176
     1
 62
     7
176
     1
 40
1.0
176
     1
 90
        1
176
     1
 90
        6
176
     1
 90
        2
176
     1
 62
     7
176
     1
 90
        5
176
     1
 90
        0
176
     1
 90
        0
176
     1
290
     0
176
     1
 90
        1
176
     1
 40
0.0
176
     1
 90
        0
176
     1
290
     0
176
     1
290
     1
176
     1
290
     1
176
     1
290
     0
176
     1
290
     0
176
     1
290
     0
176
     1
290
     0
176
     1
290
     0
176
     1
290
     0
176
     1
 90
       50
176
     1
 40
0.0
176
     1
 40
1.0
176
     1
 90
        0
176
     1
 62
    18
176
     1
 90
       50
176
     1
 90
        3
176
     1
 62
     5
420
      255
176
     1
290
     0
176
     1
 90
       50
176
     1
 90
       50
176
     1
 90
       50
176
     1
290
     0
176
     1
 90
       50
176
     1
 62
   256
176
     0
 40
1.0
176
     0
 90
        2
176
     1
  1
strokes_ogs.tif
176
     1
290
     0
176
     1
 40
1.0
176
     1
 40
1.0
176
     1
  0
VISUALSTYLE
  5
36
102
{ACAD_REACTORS
330
2A
102
}
330
2A
100
AcDbVisualStyle
  2

 70
    12
177
     3
291
     1
 70
    58
 90
        2
176
     1
 90
        2
176
     1
 90
        0
176
     1
 90
        0
176
     1
 40
0.6
176
     1
 40
30.0
176
     1
 62
     7
420
 16777215
176
     1
 90
        1
176
     1
 90
        4
176
     1
 62
     7
176
     1
 62
   257
176
     1
 90
        1
176
     1
 90
        1
176
     1
 40
1.0
176
     1
 90
        8
176
     1
 62
     7
176
     1
 40
1.0
176
     1
 90
        1
176
     1
 90
        6
176
     1
 90
        2
176
     1
 62
     7
176
     1
 90
        5
176
     1
 90
        0
176
     1
 90
        0
176
     1
290
     0
176
     1
 90
        1
176
     1
 40
50.0
176
     1
 90
        0
176
     1
290
     0
176
     1
290
     1
176
     1
290
     1
176
     1
290
     0
176
     1
290
     0
176
     1
290
     0
176
     1
290
     0
176
     1
290
     0
176
     1
290
     0
176
     1
 90
       50
176
     1
 40
0.0
176
     1
 40
1.0
176
     1
 90
        0
176
     1
 62
    18
176
     1
 90
       50
176
     1
 90
        3
176
     1
 62
     5
420
      255
176
     1
290
     0
176
     1
 90
       50
176
     1
 90
       50
176
     1
 90
       50
176
     1
290
     0
176
     1
 90
       50
176
     1
 62
   256
176
     0
 40
1.0
176
     0
 90
        2
176
     1
  1
strokes_ogs.tif
176
     1
290
     0
176
     1
 40
1.0
176
     1
 40
1.0
176
     1
  0
VISUALSTYLE
  5
3A
102
{ACAD_REACTORS
330
2A
102
}
330
2A
100
AcDbVisualStyle
  2

 70
    16
177
     3
291
     1
 70
    58
 90
        2
176
     1
 90
        2
176
     1
 90
        3
176
     1
 90
        0
176
     1
 40
0.6
176
     1
 40
30.0
176
     1
 62
     8
420
  8421504
176
     1
 90
        1
176
     1
 90
        4
176
     1
 62
     7
176
     1
 62
   257
176
     1
 90
        1
176
     1
 90
        1
176
     1
 40
1.0
176
     1
 90
        8
176
     1
 62
     8
420
  8421504
176
     1
 40
1.0
176
     1
 90
        1
176
     1
 90
        6
176
     1
 90
        2
176
     1
 62
     7
176
     1
 90
        5
176
     1
 90
        0
176
     1
 90
        0
176
     1
290
     0
176
     1
 90
        1
176
     1
 40
0.0
176
     1
 90
        0
176
     1
290
     0
176
     1
290
     1
176
     1
290
     1
176
     1
290
     0
176
     1
290
     0
176
     1
290
     0
176
     1
290
     0
176
     1
290
     0
176
     1
290
     0
176
     1
 90
       50
176
     1
 40
0.0
176
     1
 40
1.0
176
     1
 90
        0
176
     1
 62
    18
176
     1
 90
       50
176
     1
 90
        3
176
     1
 62
     5
420
      255
176
     1
290
     0
176
     1
 90
       50
176
     1
 90
       50
176
     1
 90
       50
176
     1
290
     0
176
     1
 90
       50
176
     1
 62
   256
176
     0
 40
1.0
176
     0
 90
        2
176
     1
  1
strokes_ogs.tif
176
     1
290
     0
176
     1
 40
1.0
176
     1
 40
1.0
176
     1
  0
VISUALSTYLE
  5
34
102
{ACAD_REACTORS
330
2A
102
}
330
2A
100
AcDbVisualStyle
  2

 70
     9
177
     3
291
     0
 70
    58
 90
        3
176
     1
 90
        2
176
     1
 90
        0
176
     1
 90
        0
176
     1
 40
0.6
176
     1
 40
30.0
176
     1
 62
     7
420
 16777215
176
     1
 90
        2
176
     1
 90
        2
176
     1
 62
     7
176
     1
 62
   257
176
     1
 90
        1
176
     1
 90
        1
176
     1
 40
179.0
176
     1
 90
        8
176
     1
 62
     7
176
     1
 40
1.0
176
     1
 90
        1
176
     1
 90
        6
176
     1
 90
        2
176
     1
 62
     7
176
     1
 90
        3
176
     1
 90
        0
176
     1
 90
        0
176
     1
290
     0
176
     1
 90
        1
176
     1
 40
0.0
176
     1
 90
        0
176
     1
290
     0
176
     1
290
     1
176
     1
290
     1
176
     1
290
     0
176
     1
290
     0
176
     1
290
     0
176
     1
290
     0
176
     1
290
     0
176
     1
290
     0
176
     1
 90
       50
176
     1
 40
0.0
176
     1
 40
1.0
176
     1
 90
        0
176
     1
 62
    18
176
     1
 90
       50
176
     1
 90
        3
176
     1
 62
     5
420
      255
176
     1
290
     0
176
     1
 90
       50
176
     1
 90
       50
176
     1
 90
       50
176
     1
290
     0
176
     1
 90
       50
176
     1
 62
   256
176
     0
 40
1.0
176
     0
 90
        2
176
     1
  1
strokes_ogs.tif
176
     1
290
     0
176
     1
 40
1.0
176
     1
 40
1.0
176
     1
  0
VISUALSTYLE
  5
35
102
{ACAD_REACTORS
330
2A
102
}
330
2A
100
AcDbVisualStyle
  2

 70
    11
177
     3
291
     1
 70
    58
 90
        2
176
     1
 90
        2
176
     1
 90
        0
176
     1
 90
        0
176
     1
 40
0.6
176
     1
 40
30.0
176
     1
 62
     7
420
 16777215
176
     1
 90
        1
176
     1
 90
        4
176
     1
 62
     7
176
     1
 62
   257
176
     1
 90
        1
176
     1
 90
        1
176
     1
 40
1.0
176
     1
 90
        8
176
     1
 62
     7
176
     1
 40
1.0
176
     1
 90
        1
176
     1
 90
        6
176
     1
 90
        2
176
     1
 62
     7
176
     1
 90
        5
176
     1
 90
        0
176
     1
 90
        0
176
     1
290
     0
176
     1
 90
        1
176
     1
 40
-50.0
176
     1
 90
        0
176
     1
290
     0
176
     1
290
     1
176
     1
290
     1
176
     1
290
     0
176
     1
290
     0
176
     1
290
     0
176
     1
290
     0
176
     1
290
     0
176
     1
290
     0
176
     1
 90
       50
176
     1
 40
0.0
176
     1
 40
1.0
176
     1
 90
        0
176
     1
 62
    18
176
     1
 90
       50
176
     1
 90
        3
176
     1
 62
     5
420
      255
176
     1
290
     0
176
     1
 90
       50
176
     1
 90
       50
176
     1
 90
       50
176
     1
290
     0
176
     1
 90
       50
176
     1
 62
   256
176
     0
 40
1.0
176
     0
 90
        2
176
     1
  1
strokes_ogs.tif
176
     1
290
     0
176
     1
 40
1.0
176
     1
 40
1.0
176
     1
  0
VISUALSTYLE
  5
3D
102
{ACAD_REACTORS
330
2A
102
}
330
2A
100
AcDbVisualStyle
  2

 70
    22
177
     3
291
     1
 70
    58
 90
        2
176
     0
 90
        2
176
     0
 90
        0
176
     0
 90
        0
176
     0
 40
0.6
176
     0
 40
30.0
176
     0
 62
     7
420
 16777215
176
     0
 90
        1
176
     0
 90
        4
176
     0
 62
     7
176
     0
 62
   257
176
     0
 90
        1
176
     0
 90
        1
176
     0
 40
1.0
176
     0
 90
        8
176
     2
 62
     7
176
     0
 40
1.0
176
     0
 90
        1
176
     0
 90
        6
176
     0
 90
        2
176
     0
 62
     7
176
     0
 90
        5
176
     0
 90
        0
176
     0
 90
        0
176
     0
290
     0
176
     0
 90
        1
176
     0
 40
0.0
176
     0
 90
        0
176
     0
290
     0
176
     0
290
     1
176
     0
290
     1
176
     0
290
     0
176
     0
290
     0
176
     0
290
     0
176
     0
290
     0
176
     0
290
     0
176
     0
290
     0
176
     0
 90
       50
176
     0
 40
0.0
176
     0
 40
1.0
176
     0
 90
        0
176
     0
 62
    18
176
     0
 90
       50
176
     0
 90
        3
176
     0
 62
     5
420
      255
176
     0
290
     0
176
     0
 90
       50
176
     0
 90
       50
176
     0
 90
       50
176
     0
290
     0
176
     0
 90
       50
176
     0
 62
   256
176
     0
 40
1.0
176
     0
 90
        2
176
     0
  1
strokes_ogs.tif
176
     0
290
     0
176
     0
 40
1.0
176
     0
 40
1.0
176
     0
  0
VISUALSTYLE
  5
39
102
{ACAD_REACTORS
330
2A
102
}
330
2A
100
AcDbVisualStyle
  2

 70
    15
177
     3
291
     1
 70
    58
 90
        2
176
     1
 90
        2
176
     1
 90
        0
176
     1
 90
        0
176
     1
 40
0.6
176
     1
 40
30.0
176
     1
 62
     7
420
 16777215
176
     1
 90
        1
176
     1
 90
        4
176
     1
 62
     7
176
     1
 62
   257
176
     1
 90
        1
176
     1
 90
        1
176
     1
 40
1.0
176
     1
 90
        8
176
     1
 62
     7
176
     1
 40
1.0
176
     1
 90
        1
176
     1
 90
        6
176
     1
 90
        2
176
     1
 62
     7
176
     1
 90
        5
176
     1
 90
        0
176
     1
 90
        0
176
     1
290
     0
176
     1
 90
        1
176
     1
 40
0.0
176
     1
 90
        0
176
     1
290
     0
176
     1
290
     1
176
     1
290
     1
176
     1
290
     0
176
     1
290
     0
176
     1
290
     0
176
     1
290
     0
176
     1
290
     0
176
     1
290
     0
176
     1
 90
       50
176
     1
 40
0.0
176
     1
 40
1.0
176
     1
 90
        0
176
     1
 62
    18
176
     1
 90
       50
176
     1
 90
        3
176
     1
 62
     5
420
      255
176
     1
290
     0
176
     1
 90
       50
176
     1
 90
       50
176
     1
 90
       50
176
     1
290
     0
176
     1
 90
       50
176
     1
 62
   256
176
     0
 40
1.0
176
     0
 90
        2
176
     1
  1
strokes_ogs.tif
176
     1
290
     0
176
     1
 40
1.0
176
     1
 40
1.0
176
     1
  0
VISUALSTYLE
  5
2B
102
{ACAD_REACTORS
330
2A
102
}
330
2A
100
AcDbVisualStyle
  2

 70
     0
177
     3
291
     1
 70
    58
 90
        2
176
     1
 90
        1
176
     1
 90
        1
176
     1
 90
        2
176
     1
 40
0.6
176
     1
 40
30.0
176
     1
 62
     7
420
 16777215
176
     1
 90
        0
176
     1
 90
        0
176
     1
 62
     7
176
     1
 62
   257
176
     1
 90
        1
176
     1
 90
        1
176
     1
 40
1.0
176
     1
 90
        8
176
     1
 62
     7
176
     1
 40
1.0
176
     1
 90
        1
176
     1
 90
        6
176
     1
 90
        2
176
     1
 62
     7
176
     1
 90
        5
176
     1
 90
        0
176
     1
 90
        0
176
     1
290
     0
176
     1
 90
       13
176
     1
 40
0.0
176
     1
 90
        0
176
     1
290
     0
176
     1
290
     1
176
     1
290
     1
176
     1
290
     0
176
     1
290
     0
176
     1
290
     0
176
     1
290
     0
176
     1
290
     0
176
     1
290
     0
176
     1
 90
       50
176
     1
 40
0.0
176
     1
 40
1.0
176
     1
 90
        0
176
     1
 62
    18
176
     1
 90
       50
176
     1
 90
        3
176
     1
 62
     5
420
      255
176
     1
290
     0
176
     1
 90
       50
176
     1
 90
       50
176
     1
 90
       50
176
     1
290
     0
176
     1
 90
       50
176
     1
 62
   256
176
     0
 40
1.0
176
     0
 90
        2
176
     1
  1
strokes_ogs.tif
176
     1
290
     0
176
     1
 40
1.0
176
     1
 40
1.0
176
     1
  0
VISUALSTYLE
  5
2C
102
{ACAD_REACTORS
330
2A
102
}
330
2A
100
AcDbVisualStyle
  2

 70
     1
177
     3
291
     1
 70
    58
 90
        2
176
     1
 90
        1
176
     1
 90
        1
176
     1
 90
        2
176
     1
 40
0.6
176
     1
 40
30.0
176
     1
 62
     7
420
 16777215
176
     1
 90
        1
176
     1
 90
        0
176
     1
 62
     7
176
     1
 62
   257
176
     1
 90
        1
176
     1
 90
        1
176
     1
 40
1.0
176
     1
 90
        0
176
     1
 62
   257
176
     1
 40
1.0
176
     1
 90
        1
176
     1
 90
        6
176
     1
 90
        2
176
     1
 62
     7
176
     1
 90
        5
176
     1
 90
        0
176
     1
 90
        0
176
     1
290
     0
176
     1
 90
       13
176
     1
 40
0.0
176
     1
 90
        0
176
     1
290
     0
176
     1
290
     1
176
     1
290
     1
176
     1
290
     0
176
     1
290
     0
176
     1
290
     0
176
     1
290
     0
176
     1
290
     0
176
     1
290
     0
176
     1
 90
       50
176
     1
 40
0.0
176
     1
 40
1.0
176
     1
 90
        0
176
     1
 62
    18
176
     1
 90
       50
176
     1
 90
        3
176
     1
 62
     5
420
      255
176
     1
290
     0
176
     1
 90
       50
176
     1
 90
       50
176
     1
 90
       50
176
     1
290
     0
176
     1
 90
       50
176
     1
 62
   256
176
     0
 40
1.0
176
     0
 90
        2
176
     1
  1
strokes_ogs.tif
176
     1
290
     0
176
     1
 40
1.0
176
     1
 40
1.0
176
     1
  0
VISUALSTYLE
  5
2D
102
{ACAD_REACTORS
330
2A
102
}
330
2A
100
AcDbVisualStyle
  2

 70
     2
177
     3
291
     1
 70
    58
 90
        2
176
     1
 90
        2
176
     1
 90
        1
176
     1
 90
        2
176
     1
 40
0.6
176
     1
 40
30.0
176
     1
 62
     7
420
 16777215
176
     1
 90
        0
176
     1
 90
        0
176
     1
 62
     7
176
     1
 62
   257
176
     1
 90
        1
176
     1
 90
        1
176
     1
 40
1.0
176
     1
 90
        0
176
     1
 62
     7
176
     1
 40
1.0
176
     1
 90
        1
176
     1
 90
        6
176
     1
 90
        2
176
     1
 62
     7
176
     1
 90
        5
176
     1
 90
        0
176
     1
 90
        0
176
     1
290
     0
176
     1
 90
       13
176
     1
 40
0.0
176
     1
 90
        0
176
     1
290
     0
176
     1
290
     1
176
     1
290
     1
176
     1
290
     0
176
     1
290
     0
176
     1
290
     0
176
     1
290
     0
176
     1
290
     0
176
     1
290
     0
176
     1
 90
       50
176
     1
 40
0.0
176
     1
 40
1.0
176
     1
 90
        0
176
     1
 62
    18
176
     1
 90
       50
176
     1
 90
        3
176
     1
 62
     5
420
      255
176
     1
290
     0
176
     1
 90
       50
176
     1
 90
       50
176
     1
 90
       50
176
     1
290
     0
176
     1
 90
       50
176
     1
 62
   256
176
     0
 40
1.0
176
     0
 90
        2
176
     1
  1
strokes_ogs.tif
176
     1
290
     0
176
     1
 40
1.0
176
     1
 40
1.0
176
     1
  0
VISUALSTYLE
  5
2E
102
{ACAD_REACTORS
330
2A
102
}
330
2A
100
AcDbVisualStyle
  2

 70
     3
177
     3
291
     1
 70
    58
 90
        2
176
     1
 90
        2
176
     1
 90
        1
176
     1
 90
        2
176
     1
 40
0.6
176
     1
 40
30.0
176
     1
 62
     7
420
 16777215
176
     1
 90
        1
176
     1
 90
        0
176
     1
 62
     7
176
     1
 62
   257
176
     1
 90
        1
176
     1
 90
        1
176
     1
 40
1.0
176
     1
 90
        0
176
     1
 62
   257
176
     1
 40
1.0
176
     1
 90
        1
176
     1
 90
        6
176
     1
 90
        2
176
     1
 62
     7
176
     1
 90
        5
176
     1
 90
        0
176
     1
 90
        0
176
     1
290
     0
176
     1
 90
       13
176
     1
 40
0.0
176
     1
 90
        0
176
     1
290
     0
176
     1
290
     1
176
     1
290
     1
176
     1
290
     0
176
     1
290
     0
176
     1
290
     0
176
     1
290
     0
176
     1
290
     0
176
     1
290
     0
176
     1
 90
       50
176
     1
 40
0.0
176
     1
 40
1.0
176
     1
 90
        0
176
     1
 62
    18
176
     1
 90
       50
176
     1
 90
        3
176
     1
 62
     5
420
      255
176
     1
290
     0
176
     1
 90
       50
176
     1
 90
       50
176
     1
 90
       50
176
     1
290
     0
176
     1
 90
       50
176
     1
 62
   256
176
     0
 40
1.0
176
     0
 90
        2
176
     1
  1
strokes_ogs.tif
176
     1
290
     0
176
     1
 40
1.0
176
     1
 40
1.0
176
     1
  0
VISUALSTYLE
  5
31
102
{ACAD_REACTORS
330
2A
102
}
330
2A
100
AcDbVisualStyle
  2

 70
     6
177
     3
291
     0
 70
    58
 90
        1
176
     1
 90
        2
176
     1
 90
        2
176
     1
 90
        0
176
     1
 40
0.6
176
     1
 40
30.0
176
     1
 62
     7
420
 16777215
176
     1
 90
        2
176
     1
 90
        2
176
     1
 62
     7
176
     1
 62
   257
176
     1
 90
        2
176
     1
 90
        1
176
     1
 40
40.0
176
     1
 90
        0
176
     1
 62
   257
176
     1
 40
1.0
176
     1
 90
        1
176
     1
 90
        6
176
     1
 90
        2
176
     1
 62
     7
176
     1
 90
        3
176
     1
 90
        0
176
     1
 90
        0
176
     1
290
     0
176
     1
 90
        1
176
     1
 40
0.0
176
     1
 90
        0
176
     1
290
     0
176
     1
290
     1
176
     1
290
     1
176
     1
290
     0
176
     1
290
     0
176
     1
290
     0
176
     1
290
     0
176
     1
290
     0
176
     1
290
     0
176
     1
 90
       50
176
     1
 40
0.0
176
     1
 40
1.0
176
     1
 90
        0
176
     1
 62
    18
176
     1
 90
       50
176
     1
 90
        3
176
     1
 62
     5
420
      255
176
     1
290
     0
176
     1
 90
       50
176
     1
 90
       50
176
     1
 90
       50
176
     1
290
     0
176
     1
 90
       50
176
     1
 62
   256
176
     0
 40
1.0
176
     0
 90
        2
176
     1
  1
strokes_ogs.tif
176
     1
290
     0
176
     1
 40
1.0
176
     1
 40
1.0
176
     1
  0
VISUALSTYLE
  5
3B
102
{ACAD_REACTORS
330
2A
102
}
330
2A
100
AcDbVisualStyle
  2

 70
    20
177
     3
291
     1
 70
    58
 90
        2
176
     0
 90
        2
176
     0
 90
        0
176
     0
 90
        0
176
     0
 40
0.6
176
     0
 40
30.0
176
     0
 62
     7
420
 16777215
176
     0
 90
        1
176
     0
 90
        4
176
     0
 62
     7
176
     0
 62
   257
176
     0
 90
        1
176
     0
 90
        1
176
     0
 40
1.0
176
     0
 90
       10
176
     2
 62
     7
176
     0
 40
1.0
176
     0
 90
        1
176
     0
 90
        6
176
     0
 90
        2
176
     0
 62
     7
176
     0
 90
        5
176
     0
 90
        0
176
     0
 90
        0
176
     0
290
     0
176
     0
 90
        1
176
     0
 40
0.0
176
     0
 90
        0
176
     0
290
     0
176
     0
290
     1
176
     0
290
     1
176
     0
290
     0
176
     0
290
     0
176
     0
290
     0
176
     0
290
     0
176
     0
290
     0
176
     0
290
     0
176
     0
 90
       50
176
     0
 40
0.0
176
     0
 40
1.0
176
     0
 90
        0
176
     0
 62
    18
176
     0
 90
       50
176
     0
 90
        3
176
     0
 62
     5
420
      255
176
     0
290
     0
176
     0
 90
       50
176
     0
 90
       50
176
     0
 90
       50
176
     0
290
     0
176
     0
 90
       50
176
     0
 62
   256
176
     0
 40
1.0
176
     0
 90
        2
176
     0
  1
strokes_ogs.tif
176
     0
290
     0
176
     0
 40
1.0
176
     0
 40
1.0
176
     0
  0
VISUALSTYLE
  5
38
102
{ACAD_REACTORS
330
2A
102
}
330
2A
100
AcDbVisualStyle
  2

 70
    14
177
     3
291
     1
 70
    58
 90
        2
176
     1
 90
        2
176
     1
 90
        0
176
     1
 90
        0
176
     1
 40
0.6
176
     1
 40
30.0
176
     1
 62
     7
420
 16777215
176
     1
 90
        1
176
     1
 90
        4
176
     1
 62
     7
176
     1
 62
   257
176
     1
 90
        7
176
     1
 90
        7
176
     1
 40
1.0
176
     1
 90
        8
176
     1
 62
     7
176
     1
 40
1.0
176
     1
 90
        1
176
     1
 90
        6
176
     1
 90
        2
176
     1
 62
     7
176
     1
 90
        5
176
     1
 90
        0
176
     1
 90
        0
176
     1
290
     0
176
     1
 90
        1
176
     1
 40
0.0
176
     1
 90
        0
176
     1
290
     0
176
     1
290
     1
176
     1
290
     1
176
     1
290
     0
176
     1
290
     0
176
     1
290
     0
176
     1
290
     0
176
     1
290
     0
176
     1
290
     0
176
     1
 90
       50
176
     1
 40
0.0
176
     1
 40
1.0
176
     1
 90
        0
176
     1
 62
    18
176
     1
 90
       50
176
     1
 90
        3
176
     1
 62
     5
420
      255
176
     1
290
     0
176
     1
 90
       50
176
     1
 90
       50
176
     1
 90
       50
176
     1
290
     0
176
     1
 90
       50
176
     1
 62
   256
176
     0
 40
1.0
176
     0
 90
        2
176
     1
  1
strokes_ogs.tif
176
     1
290
     0
176
     1
 40
1.0
176
     1
 40
1.0
176
     1
  0
VISUALSTYLE
  5
3C
102
{ACAD_REACTORS
330
2A
102
}
330
2A
100
AcDbVisualStyle
  2

 70
    21
177
     3
291
     1
 70
    58
 90
        2
176
     0
 90
        2
176
     0
 90
        0
176
     0
 90
        0
176
     0
 40
0.6
176
     0
 40
30.0
176
     0
 62
     7
420
 16777215
176
     0
 90
        1
176
     0
 90
        4
176
     0
 62
     7
176
     0
 62
   257
176
     0
 90
        1
176
     0
 90
        1
176
     0
 40
1.0
176
     0
 90
        9
176
     2
 62
     7
176
     0
 40
1.0
176
     0
 90
        1
176
     0
 90
        6
176
     0
 90
        2
176
     0
 62
     7
176
     0
 90
        5
176
     0
 90
        0
176
     0
 90
        0
176
     0
290
     0
176
     0
 90
        1
176
     0
 40
0.0
176
     0
 90
        0
176
     0
290
     0
176
     0
290
     1
176
     0
290
     1
176
     0
290
     0
176
     0
290
     0
176
     0
290
     0
176
     0
290
     0
176
     0
290
     0
176
     0
290
     0
176
     0
 90
       50
176
     0
 40
0.0
176
     0
 40
1.0
176
     0
 90
        0
176
     0
 62
    18
176
     0
 90
       50
176
     0
 90
        3
176
     0
 62
     5
420
      255
176
     0
290
     0
176
     0
 90
       50
176
     0
 90
       50
176
     0
 90
       50
176
     0
290
     0
176
     0
 90
       50
176
     0
 62
   256
176
     0
 40
1.0
176
     0
 90
        2
176
     0
  1
strokes_ogs.tif
176
     0
290
     0
176
     0
 40
1.0
176
     0
 40
1.0
176
     0
  0
VISUALSTYLE
  5
33
102
{ACAD_REACTORS
330
2A
102
}
330
2A
100
AcDbVisualStyle
  2

 70
     8
177
     3
291
     0
 70
    58
 90
        2
176
     1
 90
        3
176
     1
 90
        0
176
     1
 90
        2
176
     1
 40
0.6
176
     1
 40
30.0
176
     1
 62
     7
420
 16777215
176
     1
 90
        0
176
     1
 90
        0
176
     1
 62
     7
176
     1
 62
   257
176
     1
 90
        1
176
     1
 90
        1
176
     1
 40
1.0
176
     1
 90
        8
176
     1
 62
   257
176
     1
 40
1.0
176
     1
 90
        1
176
     1
 90
        6
176
     1
 90
        2
176
     1
 62
     7
176
     1
 90
        3
176
     1
 90
        0
176
     1
 90
        0
176
     1
290
     0
176
     1
 90
       13
176
     1
 40
0.0
176
     1
 90
        0
176
     1
290
     0
176
     1
290
     1
176
     1
290
     1
176
     1
290
     0
176
     1
290
     0
176
     1
290
     0
176
     1
290
     0
176
     1
290
     0
176
     1
290
     0
176
     1
 90
       50
176
     1
 40
0.0
176
     1
 40
1.0
176
     1
 90
        0
176
     1
 62
    18
176
     1
 90
       50
176
     1
 90
        3
176
     1
 62
     5
420
      255
176
     1
290
     0
176
     1
 90
       50
176
     1
 90
       50
176
     1
 90
       50
176
     1
290
     0
176
     1
 90
       50
176
     1
 62
   256
176
     0
 40
1.0
176
     0
 90
        2
176
     1
  1
strokes_ogs.tif
176
     1
290
     0
176
     1
 40
1.0
176
     1
 40
1.0
176
     1
  0
VISUALSTYLE
  5
42
102
{ACAD_REACTORS
330
2A
102
}
330
2A
100
AcDbVisualStyle
  2

 70
    27
177
     3
291
     0
 70
    58
 90
        2
176
     1
 90
        2
176
     1
 90
        1
176
     1
 90
        2
176
     1
 40
0.6
176
     1
 40
30.0
176
     1
 62
     7
420
 16777215
176
     1
 90
        0
176
     1
 90
        4
176
     1
 62
     7
176
     1
 62
   257
176
     1
 90
        1
176
     1
 90
        1
176
     1
 40
1.0
176
     1
 90
        8
176
     1
 62
   257
176
     1
 40
1.0
176
     1
 90
        1
176
     1
 90
        6
176
     1
 90
        2
176
     1
 62
     8
420
  7895160
176
     1
 90
        3
176
     1
 90
        0
176
     1
 90
        0
176
     1
290
     0
176
     1
 90
        5
176
     1
 40
0.0
176
     1
 90
        0
176
     1
290
     0
176
     1
290
     1
176
     1
290
     1
176
     1
290
     0
176
     1
290
     0
176
     1
290
     0
176
     1
290
     0
176
     1
290
     0
176
     1
290
     0
176
     1
 90
       50
176
     1
 40
0.0
176
     1
 40
1.0
176
     1
 90
        0
176
     1
 62
    18
176
     1
 90
       50
176
     1
 90
        3
176
     1
 62
     5
420
      255
176
     1
290
     0
176
     1
 90
       50
176
     1
 90
       50
176
     1
 90
       50
176
     1
290
     0
176
     1
 90
       50
176
     1
 62
   256
176
     0
 40
1.0
176
     0
 90
        2
176
     1
  1
strokes_ogs.tif
176
     1
290
     0
176
     1
 40
1.0
176
     1
 40
1.0
176
     1
  0
VISUALSTYLE
  5
41
102
{ACAD_REACTORS
330
2A
102
}
330
2A
100
AcDbVisualStyle
  2

 70
    26
177
     3
291
     0
 70
    58
 90
        2
176
     1
 90
        2
176
     1
 90
        1
176
     1
 90
        2
176
     1
 40
0.6
176
     1
 40
30.0
176
     1
 62
     7
420
 16777215
176
     1
 90
        1
176
     1
 90
       10
176
     1
 62
     7
176
     1
 62
   257
176
     1
 90
        2
176
     1
 90
        1
176
     1
 40
1.0
176
     1
 90
        8
176
     1
 62
   257
176
     1
 40
1.0
176
     1
 90
        1
176
     1
 90
        6
176
     1
 90
        2
176
     1
 62
     7
176
     1
 90
        3
176
     1
 90
        0
176
     1
 90
        0
176
     1
290
     0
176
     1
 90
        5
176
     1
 40
0.0
176
     1
 90
        0
176
     1
290
     0
176
     1
290
     1
176
     1
290
     1
176
     1
290
     0
176
     1
290
     0
176
     1
290
     0
176
     1
290
     0
176
     1
290
     0
176
     1
290
     0
176
     1
 90
       50
176
     1
 40
0.0
176
     1
 40
1.0
176
     1
 90
        0
176
     1
 62
    18
176
     1
 90
       50
176
     1
 90
        3
176
     1
 62
     5
420
      255
176
     1
290
     0
176
     1
 90
       50
176
     1
 90
       50
176
     1
 90
       50
176
     1
290
     0
176
     1
 90
       50
176
     1
 62
   256
176
     0
 40
1.0
176
     0
 90
        2
176
     1
  1
strokes_ogs.tif
176
     1
290
     0
176
     1
 40
1.0
176
     1
 40
1.0
176
     1
  0
VISUALSTYLE
  5
3E
102
{ACAD_REACTORS
330
2A
102
}
330
2A
100
AcDbVisualStyle
  2

 70
    23
177
     3
291
     0
 70
    58
 90
        2
176
     1
 90
        2
176
     1
 90
        3
176
     1
 90
        0
176
     1
 40
0.6
176
     1
 40
30.0
176
     1
 62
     7
420
 16777215
176
     1
 90
        2
176
     1
 90
        2
176
     1
 62
     7
176
     1
 62
     7
176
     1
 90
        1
176
     1
 90
        1
176
     1
 40
40.0
176
     1
 90
        8
176
     1
 62
     7
176
     1
 40
1.0
176
     1
 90
        1
176
     1
 90
        6
176
     1
 90
        2
176
     1
 62
     7
176
     1
 90
        3
176
     1
 90
        0
176
     1
 90
        0
176
     1
290
     0
176
     1
 90
        1
176
     1
 40
0.0
176
     1
 90
        0
176
     1
290
     0
176
     1
290
     1
176
     1
290
     1
176
     1
290
     0
176
     1
290
     0
176
     1
290
     0
176
     1
290
     0
176
     1
290
     0
176
     1
290
     0
176
     1
 90
       50
176
     1
 40
0.0
176
     1
 40
1.0
176
     1
 90
        0
176
     1
 62
    18
176
     1
 90
       50
176
     1
 90
        3
176
     1
 62
     5
420
      255
176
     1
290
     0
176
     1
 90
       50
176
     1
 90
       50
176
     1
 90
       50
176
     1
290
     0
176
     1
 90
       50
176
     1
 62
   256
176
     0
 40
1.0
176
     0
 90
        2
176
     1
  1
strokes_ogs.tif
176
     1
290
     0
176
     1
 40
1.0
176
     1
 40
1.0
176
     1
  0
VISUALSTYLE
  5
3F
102
{ACAD_REACTORS
330
2A
102
}
330
2A
100
AcDbVisualStyle
  2

 70
    24
177
     3
291
     0
 70
    58
 90
        1
176
     1
 90
        2
176
     1
 90
        2
176
     1
 90
        0
176
     1
 40
0.6
176
     1
 40
30.0
176
     1
 62
     7
420
 16777215
176
     1
 90
        2
176
     1
 90
        2
176
     1
 62
     7
176
     1
 62
     7
176
     1
 90
        1
176
     1
 90
        1
176
     1
 40
40.0
176
     1
 90
       11
176
     1
 62
     7
176
     1
 40
1.0
176
     1
 90
        1
176
     1
 90
        6
176
     1
 90
        2
176
     1
 62
     7
176
     1
 90
        6
176
     1
 90
        0
176
     1
 90
        0
176
     1
290
     0
176
     1
 90
        1
176
     1
 40
0.0
176
     1
 90
        0
176
     1
290
     0
176
     1
290
     1
176
     1
290
     1
176
     1
290
     0
176
     1
290
     0
176
     1
290
     0
176
     1
290
     0
176
     1
290
     0
176
     1
290
     0
176
     1
 90
       50
176
     1
 40
0.0
176
     1
 40
1.0
176
     1
 90
        0
176
     1
 62
    18
176
     1
 90
       50
176
     1
 90
        3
176
     1
 62
     5
420
      255
176
     1
290
     0
176
     1
 90
       50
176
     1
 90
       50
176
     1
 90
       50
176
     1
290
     0
176
     1
 90
       50
176
     1
 62
   256
176
     0
 40
1.0
176
     0
 90
        2
176
     1
  1
strokes_ogs.tif
176
     1
290
     0
176
     1
 40
1.0
176
     1
 40
1.0
176
     1
  0
VISUALSTYLE
  5
37
102
{ACAD_REACTORS
330
2A
102
}
330
2A
100
AcDbVisualStyle
  2

 70
    13
177
     3
291
     1
 70
    58
 90
        2
176
     1
 90
        2
176
     1
 90
        0
176
     1
 90
        0
176
     1
 40
0.6
176
     1
 40
30.0
176
     1
 62
     7
420
 16777215
176
     1
 90
        1
176
     1
 90
        4
176
     1
 62
     7
176
     1
 62
   257
176
     1
 90
        1
176
     1
 90
        1
176
     1
 40
1.0
176
     1
 90
       12
176
     1
 62
     7
176
     1
 40
1.0
176
     1
 90
        1
176
     1
 90
        6
176
     1
 90
        2
176
     1
 62
     7
176
     1
 90
        5
176
     1
 90
        0
176
     1
 90
        0
176
     1
290
     0
176
     1
 90
        1
176
     1
 40
0.0
176
     1
 90
        0
176
     1
290
     0
176
     1
290
     1
176
     1
290
     1
176
     1
290
     0
176
     1
290
     0
176
     1
290
     0
176
     1
290
     0
176
     1
290
     0
176
     1
290
     0
176
     1
 90
       50
176
     1
 40
0.0
176
     1
 40
1.0
176
     1
 90
        0
176
     1
 62
    18
176
     1
 90
       50
176
     1
 90
        3
176
     1
 62
     5
420
      255
176
     1
290
     0
176
     1
 90
       50
176
     1
 90
       50
176
     1
 90
       50
176
     1
290
     0
176
     1
 90
       50
176
     1
 62
   256
176
     0
 40
1.0
176
     0
 90
        2
176
     1
  1
strokes_ogs.tif
176
     1
290
     0
176
     1
 40
1.0
176
     1
 40
1.0
176
     1
  0
VISUALSTYLE
  5
30
102
{ACAD_REACTORS
330
2A
102
}
330
2A
100
AcDbVisualStyle
  2

 70
     5
177
     3
291
     0
 70
    58
 90
        0
176
     1
 90
        2
176
     1
 90
        0
176
     1
 90
        0
176
     1
 40
0.6
176
     1
 40
30.0
176
     1
 62
     7
420
 16777215
176
     1
 90
        1
176
     1
 90
        4
176
     1
 62
     7
176
     1
 62
   257
176
     1
 90
        1
176
     1
 90
        1
176
     1
 40
1.0
176
     1
 90
        0
176
     1
 62
   257
176
     1
 40
1.0
176
     1
 90
        1
176
     1
 90
        6
176
     1
 90
        2
176
     1
 62
     7
176
     1
 90
        3
176
     1
 90
        0
176
     1
 90
        0
176
     1
290
     0
176
     1
 90
        1
176
     1
 40
0.0
176
     1
 90
        0
176
     1
290
     0
176
     1
290
     1
176
     1
290
     1
176
     1
290
     0
176
     1
290
     0
176
     1
290
     0
176
     1
290
     0
176
     1
290
     0
176
     1
290
     0
176
     1
 90
       50
176
     1
 40
0.0
176
     1
 40
1.0
176
     1
 90
        0
176
     1
 62
    18
176
     1
 90
       50
176
     1
 90
        3
176
     1
 62
     5
420
      255
176
     1
290
     0
176
     1
 90
       50
176
     1
 90
       50
176
     1
 90
       50
176
     1
290
     0
176
     1
 90
       50
176
     1
 62
   256
176
     0
 40
1.0
176
     0
 90
        2
176
     1
  1
strokes_ogs.tif
176
     1
290
     0
176
     1
 40
1.0
176
     1
 40
1.0
176
     1
  0
VISUALSTYLE
  5
40
102
{ACAD_REACTORS
330
2A
102
}
330
2A
100
AcDbVisualStyle
  2

 70
    25
177
     3
291
     0
 70
    58
 90
        2
176
     1
 90
        2
176
     1
 90
        1
176
     1
 90
        1
176
     1
 40
0.5
176
     1
 40
30.0
176
     1
 62
     7
420
 16777215
176
     1
 90
        1
176
     1
 90
        0
176
     1
 62
     7
176
     1
 62
   257
176
     1
 90
        1
176
     1
 90
        1
176
     1
 40
1.0
176
     1
 90
        8
176
     1
 62
     7
176
     1
 40
1.0
176
     1
 90
        1
176
     1
 90
        6
176
     1
 90
        2
176
     1
 62
     7
176
     1
 90
        3
176
     1
 90
        0
176
     1
 90
        0
176
     1
290
     0
176
     1
 90
       13
176
     1
 40
0.0
176
     1
 90
        0
176
     1
290
     0
176
     1
290
     1
176
     1
290
     1
176
     1
290
     0
176
     1
290
     0
176
     1
290
     0
176
     1
290
     0
176
     1
290
     0
176
     1
290
     0
176
     1
 90
       50
176
     1
 40
0.0
176
     1
 40
1.0
176
     1
 90
        0
176
     1
 62
    18
176
     1
 90
       50
176
     1
 90
        3
176
     1
 62
     5
420
      255
176
     1
290
     0
176
     1
 90
       50
176
     1
 90
       50
176
     1
 90
       50
176
     1
290
     0
176
     1
 90
       50
176
     1
 62
   256
176
     0
 40
1.0
176
     0
 90
        2
176
     1
  1
strokes_ogs.tif
176
     1
290
     0
176
     1
 40
1.0
176
     1
 40
1.0
176
     1
  0
DICTIONARYVAR
  5
97
102
{ACAD_REACTORS
330
96
102
}
330
96
100
DictionaryVariables
280
     0
  1
1:1
  0
DICTIONARYVAR
  5
D0
102
{ACAD_REACTORS
330
96
102
}
330
96
100
DictionaryVariables
280
     0
  1
STANDARD
  0
DICTIONARYVAR
  5
CF
102
{ACAD_REACTORS
330
96
102
}
330
96
100
DictionaryVariables
280
     0
  1
STANDARD
  0
DICTIONARYVAR
  5
7CF
102
{ACAD_REACTORS
330
96
102
}
330
96
100
DictionaryVariables
280
     0
  1
Imperial24
  0
DICTIONARYVAR
  5
7D0
102
{ACAD_REACTORS
330
96
102
}
330
96
100
DictionaryVariables
280
     0
  1
Imperial24
  0
DICTIONARYVAR
  5
7D1
102
{ACAD_REACTORS
330
96
102
}
330
96
100
DictionaryVariables
280
     0
  1
1
  0
DICTIONARYVAR
  5
7D2
102
{ACAD_REACTORS
330
96
102
}
330
96
100
DictionaryVariables
280
     0
  1
15
  0
DICTIONARY
  5
7D6
330
D7
100
AcDbDictionary
280
     1
281
     1
  3
ACAD_XREC_ROUNDTRIP
360
7E1
  0
DICTIONARY
  5
7D4
330
D6
100
AcDbDictionary
280
     1
281
     1
  3
ACAD_XREC_ROUNDTRIP
360
7E0
  0
DICTIONARY
  5
C9
330
6A
100
AcDbDictionary
280
     1
281
     1
  3
ACAD_ROUNDTRIP_2008_TABLESTYLE_CELLSTYLEMAP
360
7DF
  0
XRECORD
  5
7E1
102
{ACAD_REACTORS
330
7D6
102
}
330
7D6
100
AcDbXrecord
280
     1
102
DISPLAYNAME
  1
Imperial24
102
FLAGS
 90
        0
  0
XRECORD
  5
7E0
102
{ACAD_REACTORS
330
7D4
102
}
330
7D4
100
AcDbXrecord
280
     1
102
DISPLAYNAME
  1
Imperial24
102
FLAGS
 90
        0
  0
CELLSTYLEMAP
  5
7DF
102
{ACAD_REACTORS
330
C9
102
}
330
C9
100
AcDbCellStyleMap
 90
        3
300
CELLSTYLE
  1
TABLEFORMAT_BEGIN
 90
        5
170
     1
 91
        0
 92
    32768
 62
   257
 93
        1
300
CONTENTFORMAT
  1
CONTENTFORMAT_BEGIN
 90
        0
 91
        0
 92
        4
 93
        0
300

 40
0.0
140
1.0
 94
        5
 62
     0
340
11
144
0.25
309
CONTENTFORMAT_END
171
     1
301
MARGIN
  1
CELLMARGIN_BEGIN
 40
0.06
 40
0.06
 40
0.06
 40
0.06
 40
0.18
 40
0.18
309
CELLMARGIN_END
 94
        6
 95
        1
302
GRIDFORMAT
  1
GRIDFORMAT_BEGIN
 90
        0
 91
        1
 62
     0
 92
       -2
340
14
 93
        0
 40
0.045
309
GRIDFORMAT_END
 95
        2
302
GRIDFORMAT
  1
GRIDFORMAT_BEGIN
 90
        0
 91
        1
 62
     0
 92
       -2
340
14
 93
        0
 40
0.045
309
GRIDFORMAT_END
 95
        4
302
GRIDFORMAT
  1
GRIDFORMAT_BEGIN
 90
        0
 91
        1
 62
     0
 92
       -2
340
14
 93
        0
 40
0.045
309
GRIDFORMAT_END
 95
        8
302
GRIDFORMAT
  1
GRIDFORMAT_BEGIN
 90
        0
 91
        1
 62
     0
 92
       -2
340
14
 93
        0
 40
0.045
309
GRIDFORMAT_END
 95
       16
302
GRIDFORMAT
  1
GRIDFORMAT_BEGIN
 90
        0
 91
        1
 62
     0
 92
       -2
340
14
 93
        0
 40
0.045
309
GRIDFORMAT_END
 95
       32
302
GRIDFORMAT
  1
GRIDFORMAT_BEGIN
 90
        0
 91
        1
 62
     0
 92
       -2
340
14
 93
        0
 40
0.045
309
GRIDFORMAT_END
309
TABLEFORMAT_END
  1
CELLSTYLE_BEGIN
 90
        1
 91
        1
300
_TITLE
309
CELLSTYLE_END
300
CELLSTYLE
  1
TABLEFORMAT_BEGIN
 90
        5
170
     1
 91
        0
 92
        0
 62
   257
 93
        1
300
CONTENTFORMAT
  1
CONTENTFORMAT_BEGIN
 90
        0
 91
        0
 92
        4
 93
        0
300

 40
0.0
140
1.0
 94
        5
 62
     0
340
11
144
0.18
309
CONTENTFORMAT_END
171
     1
301
MARGIN
  1
CELLMARGIN_BEGIN
 40
0.06
 40
0.06
 40
0.06
 40
0.06
 40
0.18
 40
0.18
309
CELLMARGIN_END
 94
        6
 95
        1
302
GRIDFORMAT
  1
GRIDFORMAT_BEGIN
 90
        0
 91
        1
 62
     0
 92
       -2
340
14
 93
        0
 40
0.045
309
GRIDFORMAT_END
 95
        2
302
GRIDFORMAT
  1
GRIDFORMAT_BEGIN
 90
        0
 91
        1
 62
     0
 92
       -2
340
14
 93
        0
 40
0.045
309
GRIDFORMAT_END
 95
        4
302
GRIDFORMAT
  1
GRIDFORMAT_BEGIN
 90
        0
 91
        1
 62
     0
 92
       -2
340
14
 93
        0
 40
0.045
309
GRIDFORMAT_END
 95
        8
302
GRIDFORMAT
  1
GRIDFORMAT_BEGIN
 90
        0
 91
        1
 62
     0
 92
       -2
340
14
 93
        0
 40
0.045
309
GRIDFORMAT_END
 95
       16
302
GRIDFORMAT
  1
GRIDFORMAT_BEGIN
 90
        0
 91
        1
 62
     0
 92
       -2
340
14
 93
        0
 40
0.045
309
GRIDFORMAT_END
 95
       32
302
GRIDFORMAT
  1
GRIDFORMAT_BEGIN
 90
        0
 91
        1
 62
     0
 92
       -2
340
14
 93
        0
 40
0.045
309
GRIDFORMAT_END
309
TABLEFORMAT_END
  1
CELLSTYLE_BEGIN
 90
        2
 91
        1
300
_HEADER
309
CELLSTYLE_END
300
CELLSTYLE
  1
TABLEFORMAT_BEGIN
 90
        5
170
     1
 91
        0
 92
        0
 62
   257
 93
        1
300
CONTENTFORMAT
  1
CONTENTFORMAT_BEGIN
 90
        0
 91
        0
 92
        4
 93
        0
300

 40
0.0
140
1.0
 94
        2
 62
     0
340
11
144
0.18
309
CONTENTFORMAT_END
171
     1
301
MARGIN
  1
CELLMARGIN_BEGIN
 40
0.06
 40
0.06
 40
0.06
 40
0.06
 40
0.18
 40
0.18
309
CELLMARGIN_END
 94
        6
 95
        1
302
GRIDFORMAT
  1
GRIDFORMAT_BEGIN
 90
        0
 91
        1
 62
     0
 92
       -2
340
14
 93
        0
 40
0.045
309
GRIDFORMAT_END
 95
        2
302
GRIDFORMAT
  1
GRIDFORMAT_BEGIN
 90
        0
 91
        1
 62
     0
 92
       -2
340
14
 93
        0
 40
0.045
309
GRIDFORMAT_END
 95
        4
302
GRIDFORMAT
  1
GRIDFORMAT_BEGIN
 90
        0
 91
        1
 62
     0
 92
       -2
340
14
 93
        0
 40
0.045
309
GRIDFORMAT_END
 95
        8
302
GRIDFORMAT
  1
GRIDFORMAT_BEGIN
 90
        0
 91
        1
 62
     0
 92
       -2
340
14
 93
        0
 40
0.045
309
GRIDFORMAT_END
 95
       16
302
GRIDFORMAT
  1
GRIDFORMAT_BEGIN
 90
        0
 91
        1
 62
     0
 92
       -2
340
14
 93
        0
 40
0.045
309
GRIDFORMAT_END
 95
       32
302
GRIDFORMAT
  1
GRIDFORMAT_BEGIN
 90
        0
 91
        1
 62
     0
 92
       -2
340
14
 93
        0
 40
0.045
309
GRIDFORMAT_END
309
TABLEFORMAT_END
  1
CELLSTYLE_BEGIN
 90
        3
 91
        2
300
_DATA
309
CELLSTYLE_END
  0
ENDSEC
  0
EOF
